Oops, an error
Loading. Please wait.

Eraser Tab

version 1
version 1

Whole song

12,943 views 3 this week
4 commentsread comments
1 2 3 4 5
worth learning
x 5
add to favorites
launch autoscroll
font size
0
reset
how to read this tab
guitar tuner
Autoscroll
slow
fast
+/-
esc
set tempo
stop
Help us to improve Ultimate-Guitar.com Take our survey!
×
Author
Band:  Hypocrisy
Album: The Arrival
Song:  Eraser

Copyright (c)  Nuclear Blast 2004
Version 1.01 - November 22, 2004

Transcribed By: Black Dragon
Email:          black_dragon__666@hotmail.com


.  - palm mute           /  - slide up to
\  - slide down to       ~  - vibrato
h  - hammer on           b  - Bend
p  - pull off            Suffixes for bend
t  - tap                 f  - full bend    h - half bend
ph - pinched harmonic    q  - quarter bend t - tap bend
*  - see comment         ^  - Hold bend    r release bend
x  - Stuccatto           ~  - vibrato bend
,  - slight palm mute    () - ghost note, sustained note
"  - tremolo note        <> - Trill

Guitar 1: Tuned down to B
Guitar 2: Tuned down to B

Riff 1

Guitar 1:
|-------------------------------------------------------------------|
|-------------------------------------------------------------------|
|--9-11-12----9-11-12----9-11-12-11-12-9-12-------------------------|
|9----------9----------9--------------------------------------------|
|-------------------------------------------------------------------|
|-------------------------------------------------------------------|

Guitar 2:
|-------------------------------------------------------------------|
|-------------------------------------------------------------------|
|-------------------------------------------------------------------|
|--2-4-5-----------------2-4-5-4-5-2--------------------------------|
|2---------------------2--------------------------------------------|
|-------------------------------------------------------------------|

Play Riff 1 three times

Riff 1a:

Guitar 1:
|-------------------------------------------------------------------|
|-------------------------------------------------------------------|
|--9-11-12----9-11-12----9-11-12------------------------------------|
|9----------9----------9--------------------------------------------|
|-------------------------------------------------------------------|
|-------------------------------------------------------------------|

Guitar 2:
|-------------------------------------------------------------------|
|-------------------------------------------------------------------|
|-------------------------------------------------------------------|
|--2-4-5-----------------2-4-5--------------------------------------|
|2---------------------2-----------77-55----------------------------|
|----------------------------------55-33----------------------------|


Riff 2:

Guitar 1:
|-------------------------------------------------------------------|
|-------------------------------------------------------------------|
|--9-11-12~--9-11-12-11-12-9~---9-11-12~---9-11-12-11-12-9~---------|
|9---------9------------------9----------9--------------------------|
|-------------------------------------------------------------------|
|-------------------------------------------------------------------|

Guitar 2:
|-------------------------------------------------------------------|
|-------------------------------------------------------------------|
|-------------------------------------------------------------------|
|-------------------------------------------------------------------|
|2------------------------------------------------------------------|
|0------------------------------------------------------------------|

Play Riff 2 twice
On Repeat, Guitar 2 plays the following:

|-------------------------------------------------------------------|
|-------------------------------------------------------------------|
|-------------------------------------------------------------------|
|-------------------------------------------------------------------|
|2------------------------------------------------77-55-------------|
|0------------------------------------------------55-33-------------|

Riff 2a:

Guitar 1:
|-------------------------------------------------------------------|
|-------------------------------------------------------------------|
|--9-11-12~--9-11-12-11-12-9~---9-11-12~---9-11-12-11-12-9~---------|
|9---------9------------------9----------9--------------------------|
|-------------------------------------------------------------------|
|-------------------------------------------------------------------|

Guitar 2:
|-------------------------------------------------------------------|
|-------------------------------------------------------------------|
|-------------------------------------------------------------------|
|-------------------------------------------------------------------|
|2-------------------5-5------2---------------------7-5-------------|
|0-------------------3-3------0---------------------5-3-------------|

Play Riff 2a twice;
On repeat, Guitar 1 plays the following:

|-------------------------------------------------------------------|
|-------------------------------------------------------------------|
|--9-11-12~--9-11-12-11-12-9~---9-11-12~---9-11-12-14-12-9-12-------|
|9---------9------------------9----------9--------------------------|
|-------------------------------------------------------------------|
|-------------------------------------------------------------------|

Riff 3:
(Verse)

Guitar 1:
|-------------------------------------------------------------------|
|-------------------------------------------------------------------|
|-------------------------------------------------------------------|
|-------------------------------------------------------------------|
|2-----------------5----------2--------------------7-5--------------|
|0-----------------3----------0--------------------5-3--------------|

Play Riff 3 twice

Riff 4:
(Pre-Chorus)

Guitar 1:
|-------------------------------------------------------------------|
|-------------------------------------------------------------------|
|-------------------------------------------------------------------|
|8-8-8-8-8--8-8-8-8-8--12-12-12-12-12--12-12-12-12-12---------------|
|6-6-6-6-6--6-6-6-6-6--10-10-10-10-10--10-10-10-10-10---------------|
|-------------------------------------------------------------------|

|-------------------------------------------------------------------|
|-------------------------------------------------------------------|
|-------------------------------------------------------------------|
|7-7-7-7-7--7-7-7-7-7--9-9--10-10-10-10--12-12-12-12----------------|
|5-5-5-5-5--5-5-5-5-5--7-7---8--8--8--8--10-10-10-10----------------|
|-------------------------------------------------------------------|

Note: I'm not sure about the second part of this riff
Play Riff 4 twice
On repeat, play the last 2 tunes 4 times

Riff 5:
(Chorus)

Guitar 1:
|11-0'-9-0'-7-0'-6-0'-7-0'-9-0'-------------------------------------|
|-------------------------------------------------------------------|
|-------------------------------------------------------------------|
|-------------------------------------------------------------------|
|-------------------------------------------------------------------|
|-------------------------------------------------------------------|

Play Riff 5 3 times


Riff 5a:

Guitar 1:
|4-0'-6-0'-7-0'-6-0'-4-0'-------------------------------------------|
|-------------------------------------------------------------------|
|-------------------------------------------------------------------|
|-------------------------------------------------------------------|
|-------------------------------------------------------------------|
|-------------------------------------------------------------------|

Play Riff 5a once

Play Riff 5 3 times, then play Riff 5a once

Fill 1:
Guitar 1:
|----------|
|----------|
|--9-11-12-|
|9---------|
|----------|
|----------|


Riff 2b:

Guitar 1:
|-------------------------------------------------------------------|
|-------------------------------------------------------------------|
|--9-11-12~--9-11-12-11-12-9~---9-11-12~---9-11-12-14-12-11-9~------|
|9---------9------------------9----------9--------------------------|
|-------------------------------------------------------------------|
|-------------------------------------------------------------------|

Guitar 2:
|-------------------------------------------------------------------|
|-------------------------------------------------------------------|
|-------------------------------------------------------------------|
|-------------------------------------------------------------------|
|2-------------------5-5------2---------------------7-5-------------|
|0-------------------3-3------0---------------------5-3-------------|

Play Riff 2b once

Play Riff 3 twice
Play Riff 4 twice, on repeat play the last two notes four times

Play Riff 5 3 times, then play Riff 5a once
Play Riff 5 3 times, then play Riff 5a once

Solo


Guitar 1:

B|-------------------------------------------------------------------|
G|---9-11-12---9-11-12--12-11-9-7--11-9-11-9-11-9-11-9-11-9----------|
D|9----------9-------------------------------------------------------|
A|-------------------------------------------------------------------|
E|-------------------------------------------------------------------|
B|-------------------------------------------------------------------|

Guitar 1:
B|-------------------------------------------------------------------|
G|-------------------------------------------------------------------|
D|11-9-11-9-11-9--7-6-7-6-7-6-7-6-7-6-7-6-7-6-7-6--16""-14""-12""----|
A|-------------------------------------------------------------------|
E|-------------------------------------------------------------------|
B|-------------------------------------------------------------------|

Guitar 1:
B|-------------------------------------------------------------------|
G|-------------------------------------------------------------------|
D|-11b12-7-11-9-11--16-14-12-11-7-11-9-11--16-14-12-11-9-11-9-11-----|
A|-------------------------------------------------------------------|
E|-------------------------------------------------------------------|
B|-------------------------------------------------------------------|

Guitar 1:
B|-------------------------------------------------------------------|
G|-------------------------------------------------------------------|
D|7-11-12-11~--------------------------------------------------------|
A|-------------------------------------------------------------------|
E|-------------------------------------------------------------------|
B|-------------------------------------------------------------------|
s

Riff 2c:

Guitar 1:
|-------------------------------------------------------------------|
|-------------------------------------------------------------------|
|--9-11-12~----9-11-12-11-12-9---9-11-12~---9-11-12-11-12-9---------|
|9-----------9-----------------9----------9-------------------------|
|-------------------------------------------------------------------|
|-------------------------------------------------------------------|

Guitar 2:
|-------------------------------------------------------------------|
|-------------------------------------------------------------------|
|-------------------------------------------------------------------|
|-------------------------------------------------------------------|
|2-------------------5-5-----------------2-------7-5----------------|
|0-------------------3-3-----------------0-------5-3----------------|

Guitar 1:
|-------------------------------------------------------------------|
|-------------------------------------------------------------------|
|--9-11-12~----9-11-12-11-12-9---9-11-12~---9-11-12-----------------|
|9-----------9-----------------9----------9-------------------------|
|-------------------------------------------------------------------|
|-------------------------------------------------------------------|

Guitar 2:
|-------------------------------------------------------------------|
|-------------------------------------------------------------------|
|-------------------------------------------------------------------|
|-------------------------------------------------------------------|
|2------------------5-3------------------2-----------2--------------|
|0------------------5-3------------------0-----------0--------------|


Play Riff 5 3 times, then play Riff 5a once
-> do this 4 times


Fill 2:
|-------------------------------------------------------------------|
|-------------------------------------------------------------------|
|-------------------------------------------------------------------|
|-------------------------------------------------------------------|
|2-2-2-2--2-2-2-2--2-2----------------------------------------------|
|0-0-0-0--0-0-0-0--0-0----------------------------------------------|


END

Notes:
I noticed that there were some errors in Version 1.0 (mainly
concerning Guitar 1). All mistakes I found were corrected.
If I find more, I'll update the tab.
If you find any mistakes, feel free to mail me.
Suggest correction
comments
print report bad tab
4 comments total. Showing first comments.
0 reply
Monochrome666 72 wrote on December 9 2006, 07:24 pm

This tab has nothing to do with Hypocrisy's Eraser.

0 reply
Gate Serpent 10 wrote on December 19 2006, 08:54 pm

I agree with mono over there, I can not get this tab. It doesn't sound right at all! Hypocrisy Rules!!!

0 reply
Gate Serpent 10 wrote on December 19 2006, 08:56 pm

Did not sound like Eraser but you came close

guest
You may want to rate the tab now too:
select rating
Wanna post a correction for this tab? Suggest correction