Oops, an error
Loading. Please wait.

Eraser Bass Tab

version 2
version 2

Whole song

677 views 1 this week
no commentswrite comment
1 2 3 4 5
please rate
add to favorites
launch autoscroll
font size
0
reset
guitar tuner
Autoscroll
slow
fast
+/-
esc
set tempo
stop
Help us to improve Ultimate-Guitar.com Take our survey!
×
Author
Tuning: BEAD
time sig: 4/4 and 2/4 at parts

WR :whole rest [4 beats]
HR :half rest [2 beats]
R: quarter rest [1 beat]
r: eighth rest [half a beat]  

4/4                         wh
D|-----|   |------------|  |-----|
A|-WR--|   |------------|  |-----|
E|-----|x7 |HR-33-r-22-r|  |-----|x7
B|-----|   |------------|  |0----|
    
 8th notes                                                       
|----------------|----------------|----------------|----------------|
|----------------|----------------|----------------|----------------|
|----------------|--------3-3-3-3-|----------------|--------3-3-2-2-|x4
|0-0-0-0-0-0-0-0-|0-0-0-0---------|0-0-0-0-0-0-0-0-|0-0-0-0---------|

 16ths                                                                    x2
|------------------|0000-r-0000-r-0000|------------------|------------------|
|1111-r-1111-r-1111|------------------|------------------|--------------0000|
|------------------|------------------|0000-r-0000-r-0000|3333-r-3333-r-----|
|------------------|------------------|------------------|------------------|

2/4      
D|-----|
A|-HR--|
E|-----|
B|-----|
         
4/4
D|----------------|----------------|----------------|----------------|
A|----------------|----------------|----------------|----------------|
E|--------3-3-3-3-|0-0-0-0-3-3-3-3-|----------------|0-0-0-0-3-3-3-3-|x2
B|0-0-0-0---------|----------------|0-0-0-0-3-3-3-3-|----------------| 

 8ths
|---------|----------------|
|---------|----------------|
|---------|--------3-3-3-3-|
|0-r-R-HR-|0-0-0-0---------| 

 8ths
|----------------|----------------|----------------|----------------|
|----------------|----------------|----------------|----------------|
|----------------|--------3-3-2-2-|----------------|--------3-3-3-3-|x2
|0-0-0-0-0-0-0-0-|0-0-0-0---------|0-0-0-0-0-0-0-0-|0-0-0-0---------|
 
 8ths
|----------------|----------------|
|----------------|----------------|
|----------------|--------3-3-2-2-|
|0-0-0-0-0-0-0-0-|0-0-0-0---------|

 16ths                                                                    x2
|------------------|0000-r-0000-r-0000|------------------|------------------|
|1111-r-1111-r-1111|------------------|------------------|--------------0000|
|------------------|------------------|0000-r-0000-r-0000|3333-r-3333-r-----|
|------------------|------------------|------------------|------------------|

2/4      
D|-----|
A|-HR--|
E|-----|
B|-----|  

4/4
D|----------------|----------------|----------------|----------------|
A|----------------|----------------|----------------|----------------|
E|--------3-3-3-3-|0-0-0-0-3-3-3-3-|----------------|0-0-0-0-3-3-3-3-|x2
B|0-0-0-0---------|----------------|0-0-0-0-3-3-3-3-|----------------| 
 
 16ths                16ths
|------------------| |----------------|----------------|
|--------------0000| |2222222222220000|------------0000|x2
|3333-r-3333-r-----| |----------------|333333333333----|[last 2 bars only]
|------------------| |----------------|----------------|

 16ths
|----------------|----------------|----------------|
|2222222222220000|----------------|------------0000|
|----------------|0000000000002222|333333333333----|
|----------------|----------------|----------------|

 wh        1/2 note
|-----|   |-------|
|-----|   |-------|
|-----|x7 |-------|
|0----|   |0--HR--|

 8ths
|----------------|----------------|----------------|----------------|
|----------------|----------------|----------------|----------------|
|--------3-3-3-3-|0-0-0-0-3-3-3-3-|----------------|0-0-0-0-3-3-3-3-|x4
|0-0-0-0---------|----------------|0-0-0-0-3-3-3-3-|----------------| 
                                    

Suggest correction new What's this?
You can suggest a correction to this tab. Community and Mods will review your correction and vote to approve or reject it.
comments
We did not receive enough feedback on this tab! Please rate:
print report bad tab
1 2 3 4 5
guest
You may want to rate the tab now too:
select rating
Please do not post tabs as comments. Select "correction" instead!