Oops, an error
Loading. Please wait.

Final Chapter Bass Tab

version 1
version 1

Whole song

Interactive

536 views 1 this week
no commentswrite comment
1 2 3 4 5
3 more votes to show rating
add to favorites
launch autoscroll
font size
0
reset
guitar tuner
Autoscroll
slow
fast
+/-
esc
set tempo
stop
Help us to improve Ultimate-Guitar.com Take our survey!
×
Author
Difficulty
novice
16X
|-----------------------|
|-----------------------|
|-----------------------|
|-0-0-0-0-0-0--12\------|



4X
|---------------------------------------------------------------------------------|
|-9-9-9-9-10-10-10-10-10-10-10-10-10-10-10-10-10-10-10-10-9-9-9-9-9-9-9-9-9-9-9-9-|
|---------------------------------------------------------------------------------|
|---------------------------------------------------------------------------------|


2X
|-----------------------------------------------------------------|
|-----------------------------------------------------------------|
|-----------------------------------------------------------------|
|-0-0-0-0-0-0-0-0-3-3-3-3-3-3-3-3-1-1-1-1-1-1-1-1-1-1-1-1-1-1-1-1-|

2X
|------------------------------------------------------------------|
|---------7-7-7-7-5-5-5-5------------------------------------------|
|-7-7-7-7-----------------5-5-5-5-0-0-0-0-2-2-2-2-3-3-3-3-5-5-5-5--|
|------------------------------------------------------------------|


2X
|---------------------------------------------------------------------|
|-------------------------------------------------------------7-7-7-7-|
|-------------------------------------7-7-10-10-10-10-9-9-9-9---------|
|-5-5-5-5-5-5-5-5-3-3-3-3-2-2-2-2-0-0---------------------------------|


4X
|----------------------------------------(9-9-9-9-7-7-7-7-5-5-5-5)|
|-8-8-8-8-8-8-8-8-7-7-7-7-5-5-5-5-7-7-7-7-------------------------|
|-----------------------------------------7-7-7-7-5-5-5-5-3-3-3-3-|
|-----------------------------------------------------------------|

4X
|--------------------------------|
|--------------------------------|
|-3-3-3-3-7-7-7-7-5-5-5-5-3-3-3-3|
|--------------------------------|

Taz Mckell
Suggest correction
Give kudos to tab author, rate the tab!
1 2 3 4 5
comments
print report bad tab
guest
You may want to rate the tab now too:
select rating
Wanna post a correction for this tab? Suggest correction