Oops, an error
Loading. Please wait.

Fire In The Sky Tab

version 1
version 1

Whole song

Interactive

2,277 views 1 this week
1 commentread comment
1 2 3 4 5
poor
x 1
add to favorites
launch autoscroll
font size
0
reset
how to read this tab
guitar tuner
Tab Pro tools
  • play this tab
  • loop segment
  • change instrument
  • show fretboard
  • metronome
Autoscroll
slow
fast
+/-
esc
set tempo
stop
                           HYPOCRISY - FIRE IN THE SKY
                         From the Album - INTO THE ABYSS
                          Copyright: NUCLEAR BLAST 2000
                           Version 2.0 - Jan 19, 2002


Origional transcription by: Mikko Leimu
Version 2.0 Transcribed By:James Williams (Inverted)

For Questions, Comments, Newest Version, or Corrections contact
Inverted: at Inverted_one@hotmail.com
Or Mikko Leimu: at mleimu@hotmail.com

Check Out Death8699.com Metaltabs.com or dsrmusic.com for More
Transcriptions:http://www.Death8699.com http://www.Metaltabs.com


 .  - palm mute           /  - slide up to
 \  - slide down to       ~  - vibrato
 h  - hammer on           b  - Bend
 p  - pull off            Suffixes for bend
 t  - tap                 f  - full bend    h - half bend
 ph - pinched harmonic    q  - quarter bend t - tap bend
 *  - see comment         ^  - Hold bend    r release bend
 x  - Stuccatto           ~  - vibrato bend
 ,  - slight palm mute    () - ghost note, sustained note
 "  - tremolo note        <> - Trill

Note* When you're learning how to play this song, make sure that you
      use the balance knob on your stereo to switch between chanels.

Tuning: "B"E"A"D"G"B"e" 7-String or "B"E"A"D"G"b" 6-String

FIRE IN THE SKY...

Riff 1-A
|------------------------------------|------------------------------------|
|------------------------------------|------------------------------------|
|-----------------10x-10-9x-9----7---|-----------------10x-10-9x----------|G
tr
|-7-9-10-9-7-9-10-------------10---9-|-7-9-10-9-7-9-10-----------7--------|
I
|------------------------------------|-----------------------------8-10-7-|
|------------------------------------|------------------------------------|
|                                    |                                    |
|------------------------------------|------------------------------------|
|------------------------------------|------------------------------------|
|------------------------------------|------------------------------------|G
tr
|---------------------------9----7---|------------------------------------|
II
|-7-------------------------7----5---|-7-------------------------3----2---|
|-5----------------------------------|-5-------------------------1----0---|
|                                    |                                    |
|------------------------------------|------------------------------------|
|------------------------------------|------------------------------------|
|------------------------------------|------------------------------------|G
tr
|---------------------------9----7---|-------------------------------24/7-|
II
|-7-------------------------7----5---|-7-------------------------3--------|
|-5----------------------------------|-5-------------------------1--------|

Riff 1-B
|------------------------------------|------------------------------------|
|------------------------------------|------------------------------------|
|-----------------10X-10-9X-9----7---|-----------------10X-10-9X----------|G
trs
|-7-9-10-9-7-9-10-------------10---9-|-7-9-10-9-7-9-10-----------7--------|I
&II
|------------------------------------|-----------------------------8-10-7-|
|------------------------------------|------------------------------------|

Riff 2
|------------------------------|-------------------------------|
|------------------------------|-------------------------------|
|------------------------------|-------------------------------|Gtr
|------------------------------|-------------------------------| I
|--7h9-9h10-9--7---------------|--7h9-9h10-9--7---------7------|
|-----------------10--9--7--9--|-----------------10--9-----10--|
|                              |                               |
|------------------------------|-------------------------------|
|------------------------------|-------------------------------|
|------------------------------|-------------------------------|Gtr
|------------------------------|-------------------------------| II
|--2-----2---0----3-----2---0--|--2-----2---0----3-----7---5---|
|--0-----3---2----5-----3---2--|--0-----3---2----5-----8---7---|

Repeat Riff 2 (3 times)

Riff 3-A (pre-chorus)
|---------------------------------|---------------------------------|
|---------------------------------|---------------------------------|
|---------------------------------|---------------------------------|Gtrs
|-4-4-4-4-4-4-4-4-5-5-5-5-2-2-2-5-|-4-4-4-4-4-4-4-4-5-5-5-5-2-2-2-5-|I&II
|-2-2-2-2-2-2-2-2-3-3-3-3-0-0-0-3-|-2-2-2-2-2-2-2-2-3-3-3-3-0-0-0-3-|
|---------------------------------|---------------------------------|

|---------------------------------|---------------------------------|
|---------------------------------|---------------------------------|
|---------------------------------|---------------------------------|Gtrs
|-4-4-4-4-4-4-4-4-5-5-5-5-2-2-2-5-|-4-4-4-4-4-4-4-4-5-5-5-5-7-7-7-7-|I&II
|-2-2-2-2-2-2-2-2-3-3-3-3-0-0-0-3-|-2-2-2-2-2-2-2-2-3-3-3-3-5-5-5-5-|
|---------------------------------|---------------------------------|

Riff 4 (chorus)
|----------------------------|---------------------------|
|----------------------------|---------------------------|
|----------------------------|---------------------------|Gtrs
|-2-------------7/5-----4----|-2-------------5\7--5/4----|I&II
|-2-------------5/3-----2----|-2-------------3\5--3/2----|
|-0--0-0000000---------------|-0--0-0000000--------------|
pm   . .......                    . .......

Repeat Riff 4   (3 times)
       Riff 1-A (2 times)
       Riff 2   (2 times)

Riff 3-B (pre-chorus)
|---------------------------------|---------------------------------|
|---------------------------------|---------------------------------|
|---------------------------------|---------------------------------|
|---------------------------------|---------------------------------|Gtrs
|-4-4-4-4-4-4-4-4-5-5-5-5-2-2-2-5-|-4-4-4-4-4-4-4-4-5-5-5-5-7-7-7-7-|I&II
|-2-2-2-2-2-2-2-2-3-3-3-3-0-0-0-3-|-2-2-2-2-2-2-2-2-3-3-3-3-5-5-5-5-|
|---------------------------------|---------------------------------|

Riff 4 (4 times)

Riff 5
|--------------------------------------------------------------------
|--------------------------------------------------------------------
|--------------------------------------------------------------------
|----555555---555555---777777---777777----9-9-9-9-9-9----9-9-9-9-9-9-
|----777777---777777---999999---999999---101010101010---101010101010-
|--0--------0--------0--------0--------0--------------0--------------
pm . ...... . ...... . ...... . ...... .  . . . . . . .  . . . . . .

 -------------------------|
 -------------------------|
 -------------------------|
 ----9-9-9-9-9-9---777777-|
 ---101010101010---999999-|
 -0--------------0--------|
  .  . . . . . . . ......

(Chorus)
Running from the shadows
Can I ever be Free?
Struggling for my life
What do they want from me?
Lying on a cold bed
It's so dark, can't see
Wake me up and take me away
So I can breathe!
comments
We did not receive enough feedback on this tab! Please rate:
print report bad tab
1 2 3 4 5
1 comment total.
0 reply
Gate Serpent wrote on December 26 2006, 07:55 pm

I can not understand a word or tab inside here!! It's uncomprehendable!!!!!!!1

I want to post or [tab]
guest
You may want to rate the tab now too:
select rating
Please do not post tabs as comments. Select "correction" instead!