Oops, an error
Loading. Please wait.

Inseminated Adoption Tab

version 1
version 1

Whole song

Interactive

618 views 1 this week
no commentswrite comment
1 2 3 4 5
please rate
add to favorites
launch autoscroll
font size
0
reset
how to read this tab
guitar tuner
Autoscroll
slow
fast
+/-
esc
set tempo
stop
Help us to improve Ultimate-Guitar.com Take our survey!
×
                        HYPOCRISY - INSEMINATED ADOPTION
                        From the Album THE FINAL CHAPTER
                          Copyright 1997 NUCLEAR BLAST
 
                             Version 2.1 - JAN '02

Transcribed by: death8699
Version 2.0 by: Mikko Leimu

For Questions, Comments, Newest Version, or Corrections contact
 death8699: archenemies@aol.com
 Mikko: mleimu@hotmail.com

Check Out Death8699.com, With More Transcriptions On It:
 http://www.death8699.com

.  - palm mute                  /  - slide up to
\  - slide down to              ~  - vibrato
h  - hammer on                  b  - bend
p  - pull off                   Suffixes for bend
ph - pinch harmonic             f - full bend    h - half bend
*  - see comment                r - release      t - tap bend
X  - percussion mute            ~ - vibrato bend
@  - slight palm mute           () - ghost note, sustained note

Tune Gtr to B (B,E,A,D,F#,B)

> > I N S E M I N A T E D  A D O P T I O N < <

Intro
|---------------------------------|----------------------------------|
|---------------------------------|----------------------------------|
|---------------------------------|----------------------------------|GTR 1
|---------------------------------|----------------------------------|
|-3-3-3-3-3-3-3-3-3-3-3-3-3-3-3-3-|-3-3-3-3-3-3-3-3-3-3-3-3-3-3-3-3--|
|-1-1-1-1-1-1-1-1-1-1-1-1-1-1-1-1-|-1-1-1-1-1-1-1-1-1-1-1-1-1-1-1-1--|
| . . . . . . . . . . . . . . . .   @ @ @ @ @ @ @ @
|                                                           
|---------------------------------|----------------------------------|
|---------------------------------|----------------------------------|
|---------------------------------|----------------------------------|GTR 2
|---------------------------------|-10101010101010101010101010101010-|
|-3-3-3-3-3-3-3-3-3-3-3-3-3-3-3-3-|-8-8-8-8-8-8-8-8-8-8-8-8-8-8-8-8--|
|-1-1-1-1-1-1-1-1-1-1-1-1-1-1-1-1-|----------------------------------|
  . . . . . . . . . . . . . . . .   @ @ @ @ @ @ @ @


Riff A
|------------------------------|------------------------------|
|------------------------------|------------------------------|
|------------------------------|------------------------------|GTRS
|------------------------------|------------------------------|1&2
|------------------------------|------------------------------|
|-2h3-00-5h6-00-2h3-00-5h6-5p3-|-2h3-00-5h6-00-2h3-00-5h6-5p3-|


Lead  w/Riff A (4 times)
|------------------------------|------------------------------|
|----------12----11------------|------------------------------|
|-9----------------------------|-9--------12----8-------------|GTR 1
|------------------------------|------------------------------|(wah wah)
|------------------------------|------------------------------|
|------------------------------|------------------------------|
|
|------------------------------|------------------------------|
|----------12----11------------|-12--------15---11------------|
|-9----------------------------|------------------------------|GTR 1
|------------------------------|------------------------------|(wah wah)
|------------------------------|------------------------------|
|------------------------------|------------------------------|


Riff B
|---------------------------|---------------------------|
|---------------------------|---------------------------|
|---------------------------|---------------------------|GTRS
|---------------------------|---------------------------|1&2
|-4--5--4--8---4--5--4--7---|-4--5--4--7---4--5--4--8---|
|-2--3--2--6---2--3--2--5---|-2--3--2--5---2--3--2--6---|


Repeat Riff B


Riff A.1
|---------------------------------|---------------------------------|
|---------------------------------|---------------------------------|
|---------------------------------|---------------------------------|GTRS
|---------------------------------|---------------------------------|1&2
|-4/5-----7/8-----4/5-----7/8-7\5-|-4/5-----7/8-----4/5-----7/8-7\5-|
|-2/3-0-0-5/6-0-0-2/3-0-0-5/6-5\3-|-2/3-0-0-5/6-0-0-2/3-0-0-5/6-5\3-|
  sl      sl      sl      sl  sl    sl      sl      sl      sl  sl


Riff B (4 times)


Fill 1
|-----------------|
|-----------------|
|-----------------|GTRS
|-2---2---2---2---|1&2
|-2---2---2---2---|
|-0---0---0---0---|
  .   .   .   .


Riff C
|----------------------|------------------------|
|----------------------|------------------------|
|----------------------|------------------------|GTRS
|----------------------|------------------------|1&2
|-----7/8-----8/11-----|-11\10-----10\8-----6---|
|-5-5-5/6-6-6-6/9--9-9-|-9-\8--8-8--8\6-6-6-4---|



Repeat Riff C (3 times)


Riff D.1
|-----------------------------|---------------------------------------|
|-----------------------------|---------------------------------------|
|-----------------------------|---------------------------------------|GTR 1
|-----9-----7/9-----9-----5/7-|-----9-----7/9-----9-------------------|
|-----7-----5/7-----7-----3/5-|-----7-----5/7-----7----5h7p5\3h5p3----|
|-0-0---0-0--sl-0-0---0-0--sl-|-0-0---0-0--sl-0-0---------sl----------|
| . .   . .     . .   . .       . .   . .     . .
|
|-----------------------------|---------------------------------------|
|-----------------------------|---------------------------------------|
|-----------------------------|---------------------------------------|GTR 1
|-----9-----7/9-----9-----5/7-|-----9-----7/9-------------------------|
|-----7-----5/7-----7-----3/5-|-----7-----5/7-5h7p5\3h5p3\2h3p2p0h2p0-|
|-0-0---0-0--sl-0-0---0-0--sl-|-0-0---0-0-sl------sl----sl------------|
| . .   . .     . .   . .       . .   . .                             
|                                                                      
|-----------------------------|---------------------------------------|
|-----------------------------|---------------------------------------|
|-----------------------------|----------some strange effect thing----|GTR 2
|-2---------------------------|-----(2)-------------------------------|
|-2---------------------------|-----(2)-------------------------------|
|-0---------------------------|-----(0)-------------------------------|


Riff D.2
|-----------------------------|---------------------------------------|
|-----------------------------|---------------------------------------|
|-----------------------------|---------------------------------------|GTRS
|-----9-----7/9-----9-----5/7-|-----9-----7/9-----9-------------------|1&2
|-----7-----5/7-----7-----3/5-|-----7-----5/7-----7----5h7p5\3h5p3----|
|-0-0---0-0--sl-0-0---0-0--sl-|-0-0---0-0--sl-0-0---------sl----------|
| . .   . .     . .   . .       . .   . .     . .
|
|-----------------------------|---------------------------------------|
|-----------------------------|---------------------------------------|
|-----------------------------|---------------------------------------|GTRS
|-----9-----7/9-----9-----5/7-|-----9-----7/9-------------------------|1&2
|-----7-----5/7-----7-----3/5-|-----7-----5/7-5h7p5\3h5p3\2h3p2p0h2p0-|
|-0-0---0-0--sl-0-0---0-0--sl-|-0-0---0-0-sl------sl----sl------------|
  . .   . .     . .   . .       . .   . .                             


Solo w/Riff D.2


Riff E
|-------------------------------|-------------------------|
|-------------------------------|-------------------------|
|-------------------------------|-------------------------|GTRS
|-------9/10-9-12-----9/10-9----|-----9/10\9--7---------7-|1&2
|-2-----7/8--7-10-----7/8--7--2-|-----7/8-\7--5-----7/9-5-|
|-0-0-0-sl--------0-0-sl------0-|-0-0-sl-sl-----0-0-5/7---|
|   . .           . .             . .           . . sl    
|
|-------------------------------|-------------------------|
|-------------------------------|-------------------------|
|-------------------------------|-------------------------|GTRS
|-------9/10\9-12-----9/10\9----|-----9/10\9-7------------|1&2
|-2-----7/8-\7-10-----7/8-\7--2-|-----7/8-\7-5----4/5-3/4-|
|-0-0-0-sl-sl-----0-0-sl-sl---0-|-0-0-sl-sl---0-0-2/3-1/2-|
    . .           . .             . .         . . sl  sl


Lead w/Riff A (4 times)
|--------------------------|-------------------------------|
|--------------------------|-------------------------------|
|----------12----11--------|-------------------------------|
|-9------------------------|-9--------12----8----?---------|GTR 1
|--------------------------|---------------------*---------|(wah wah)
|--------------------------|-------------------------------|
|
|--------------------------|-------------------------------|
|--------------------------|-------------------------------|
|----------12----11--------|-12--------15---11--------(11)-|
|-9------------------------|---------------------------**--|GTR 1
|--------------------------|-------------------------------|(wah wah)
|--------------------------|-------------------------------|


 * some natural harmonic + vibrate w/bar
** dive w/bar


Riff A.1 (2 times)
Riff B (2 times)
Fill 1
Riff C (4 times)
Riff E (3 times)


Ending
|-------------------------------|----------------------------|
|-------------------------------|----------------------------|
|-------------------------------|----------------------------|GTRS
|-------9/10-9-12-----9/10-9----|-----9/10\9--7---------7----|1&2
|-2-----7/8--7-10-----7/8--7--2-|-----7/8-\7--5-----7/9-5----|
|-0-0-0-sl--------0-0-sl------0-|-0-0-sl-sl-----0-0-5/7------|
|   . .           . .             . .           . . sl    
|
|-------------------------------|----------------------------|
|-------------------------------|----------------------------|
|-------------------------------|----------------------------|GTRS
|-------9/10-9-12-----9/10-9----|-----9/10-9---------------2-|1&2
|-2-----7/8--7-10-----7/8--7--2-|-----7/8--7-55555555------2-|
|-0-0-0-sl--------0-0-sl------0-|-0-0-sl-------------33552-0-|
    . .           . .             . .        .............    


Check Out Death8699.com, With More Transcriptions On It:
 http://www.death8699.co
Suggest correction
What's this?
You can suggest a correction to this tab. Community and Mods will review your correction and vote to approve or reject it.
comments
We did not receive enough feedback on this tab! Please rate:
print report bad tab
1 2 3 4 5
guest
You may want to rate the tab now too:
select rating
Please do not post tabs as comments. Select "correction" instead!