Oops, an error
Loading. Please wait.

Mind Corruption Bass Tab

version 1
version 1

Whole song

Interactive

231 views 1 this week
no commentswrite comment
1 2 3 4 5
please rate
add to favorites
launch autoscroll
font size
0
reset
guitar tuner
Autoscroll
slow
fast
+/-
esc
set tempo
stop
Help us to improve Ultimate-Guitar.com Take our survey!
×
Song: Mind Corruption
Artist: Hypocrisy
Album: The Forth Dimension
Release yr.: 1995

Tuning: BEAD
Time Sig.: 4/4

  wh.   1/2's
D|-----|------|
A|-----|------|
E|-----|------| x6
B|0----|3--2--|

  16th notes
D|-------------------------------| 
A|--------42--2------------------|
E|----------54-542---------------| x6
B|0320-032--------0320-3202-02-02|

  1/2 notes
D|------|------|------|------|
A|------|------|------|------|
E|------|---1--|------|------| x2
B|0--3--|2-----|0--3--|2--1--|

  16th's  |32nd's          16th's  |32nd's
D|------------5555----2222|------------000044442222|
A|--32--322222----4444----|--32--322222------------|
E|------------------------|------------------------| x4
B|00--00------------------|00--00------------------|

  16th notes
D|-------------------------------| 
A|--------42--2------------------|
E|----------54-542---------------| x4
B|0320-032--------0320-3202-02-02|

  1/2 notes
D|------|------|------|------|
A|------|------|------|------|
E|------|---1--|------|------| x2
B|0--3--|2-----|0--3--|2--1--|

  16th's  |32nd's          16th's  |32nd's
D|------------5555----2222|------------000044442222|
A|--32--322222----4444----|--32--322222------------|
E|------------------------|------------------------| x4
B|00--00------------------|00--00------------------|

  wh.   1/2's       1/2's
D|-----|------|    |------|------|------|------|
A|-----|------|    |------|------|------|------|
E|-----|------| x6 |------|---1--|------|------| x2
B|0----|3--2--|    |0--3--|2-----|0--3--|2--1--|

  wh.   1/2's
D|-----|------|    |-----|
A|-----|------|    |-----|
E|-----|------| x4 |-----|
B|0----|3--2--|    |0----|
Suggest correction
Give kudos to tab author, rate the tab!
1 2 3 4 5
comments
print report bad tab
guest
You may want to rate the tab now too:
select rating
Please do not post tabs as comments. Select "correction" instead!