Oops, an error
Loading. Please wait.

Hywire Blues Tab

159 views 1 this week
no commentswrite comment
1 2 3 4 5
please rate
add to favorites
launch autoscroll
font size
0
reset
how to read this tab
guitar tuner
Tab Pro tools
  • play this tab
  • loop segment
  • change instrument
  • show fretboard
  • metronome
Autoscroll
slow
fast
+/-
esc
set tempo
stop
From Guitar Tab Universe - www.guitartabs.cc    [save this file]
Song Title:HyWire Blues
Artist:HyWire
Guitar1:Anthony Corona
Guitar2:Dave Bravo
Vocals:Kyle Cleffi
Bass:Will Lowery
This is a very easy blues song that i made in about 5 min and i hope u will
find this song easy. *You can play it at any speed if u like.

 Intro and  Verse 1: Guitar1
 |-10b--10-8--------|------5----|--------------10-12----------------|
 |-----------10-8-10|----5---/10|----10----12b-------12b-10h12----10|
 |------------------|5h6--------|/11----11---------------------11---|
 |------------------|-----------|-----------------------------------|
 |------------------|-----------|-----------------------------------|
 |------------------|-----------|-----------------------------------|

 Guitar2
 |------5-8p5|--------/5-5-5-5-5------|
 |----5------|----5-7-/5-5-5-5-5-7-5--|
 |-7b--------|-/6----------------7-5-6|
 |-----------|-----------------------7|
 |-----------|------------------------|
 |-----------|------------------------|
 Repeat Verse one twice.

 Verse Two
 Guitar1
 |-10b--10-8--------|\---- /
 |-----------10-8-10------ / \
 |------------------------ /  \
 |------------------------ /   \
 |------------------------ /    \
 |------------------------ /     \
                          |
 Guitar2                  |Play about 10 Times
 |-5-5-5------------|    -- /
 |-5-5-5------------|   --- /
 |--------7--5--7--5|  ---- /
 |--------7--5--7--5| ----- /
 |------------------|------ /
 |------------------------- /

 Solo
 |-10b--10-8--------|------5----|--------------10-12----------------|
 |-----------10-8-10|----5---/10|----10----12b-------12b-10h12----10|
 |------------------|5h6--------|/11----11---------------------11---|
 |------------------|-----------|-----------------------------------|
 |------------------|-----------|-----------------------------------|
 |------------------|-----------|-----------------------------------|
 Improv after that wiht the solo for another 15-20 seconds

 Verse 3

 Guitar1
 |-10b--10-8--------|\---- /
 |-----------10-8-10------ / \
 |------------------------ /  \
 |------------------------ /   \
 |------------------------ /    \
 |------------------------ /     \
                          |
 Guitar2                  |Play about 10 Times
 |-5-5-5------------|    -- /
 |-5-5-5------------|   --- /
 |--------7--5--7--5|  ---- /
 |--------7--5--7--5| ----- /
 |------------------|------ /
 |------------------------- /

 Outro:Guitar1
 |-------------------------------|
 |--7-6-5-4-3-2-2--/3\---2-------|
 |-6-5-4-3-2-1--1-/-2-\--1-------|
 |-------------------------------|
 |-------------------------------|
 |-------------------------------|
 Play Once
 Any Questions E-mail me at HyWire119@cs.com
comments
We did not receive enough feedback on this tab! Please rate:
print report bad tab
1 2 3 4 5
I want to post or [tab]
guest
You may want to rate the tab now too:
select rating
Please do not post tabs as comments. Select "correction" instead!