Oops, an error
Loading. Please wait.

Giving My Life Tab

439 views 3 this week
no commentswrite comment
1 2 3 4 5
2 more votes to show rating
add to favorites
launch autoscroll
font size
0
reset
how to read this tab
guitar tuner
Autoscroll
slow
fast
+/-
esc
set tempo
stop
Help us to improve Ultimate-Guitar.com Take our survey!
×
Difficulty
Tuning
novice
C G C F A D
-------------------------------------------------------------------------------
                             Giving my life - I-Exist
-------------------------------------------------------------------------------
http://www.iexistband.com
Tabbed by: kerk12
E-mail: kerk12GR@gmail.com

A really powerful song by this band. Here's the intro that's carried through the rest of the song

Tuning: Drop C[C,G,C,F,A,D]

Legend:
~ = let ring

D|---------------------------------------------------------------|
A|---------------------------------------------------------------|
F|---6-6-6-6-6-6-6-6-6-6-6-6-6-6-6-8-8-8-8-8-8-8-8-8-8-8-8-8-8-8-|
C|---6-6-6-6-6-6-6-6-6-6-6-6-6-6-6-8-8-8-8-8-8-8-8-8-8-8-8-8-8-8-|
G|---4-4-4-4-4-4-4-4-4-4-4-4-4-4-4-6-6-6-6-6-6-6-6-6-6-6-6-6-6-6-|
C|---------------------------------------------------------------|

D|---------------------------------------------------------------|
A|---------------------------------------------------------------|
F|--5-5-5-5-5-5-5-5-5-5-5-5-5-5-8-8-8-8-8-8-10-10-10-8-8-8-8-8-8-|
C|--5-5-5-5-5-5-5-5-5-5-5-5-5-5-8-8-8-8-8-8-10-10-10-8-8-8-8-8-8-|
G|--3-3-3-3-3-3-3-3-3-3-3-3-3-3-6-6-6-6-6-6-8--8--8--6-6-6-6-6-6-|
C|---------------------------------------------------------------|

D|-------------------------------------------|
A|-------------------------------------------|
F|--6-6-6-6-6-6~~8~~10~~8~~6~~3~~5~~8~~7~~6--|
C|--6-6-6-6-6-6~~8~~10~~8~~6~~3~~5~~8~~7~~6--|
G|--4-4-4-4-4-4~~6~~8~~~6~~4~~1~~3~~6~~4~~4--|
C|-------------------------------------------|
Suggest correction
Give kudos to tab author, rate the tab!
1 2 3 4 5
comments
print report bad tab
guest
You may want to rate the tab now too:
select rating
Wanna post a correction for this tab? Suggest correction