Oops, an error
Loading. Please wait.

Nailed To The Floor Tab

438 views 1 this week
no commentswrite comment
1 2 3 4 5
2 more votes to show rating
add to favorites
launch autoscroll
font size
0
reset
how to read this tab
guitar tuner
Autoscroll
slow
fast
+/-
esc
set tempo
stop
Help us to improve Ultimate-Guitar.com Take our survey!
×
Author
artist: i against i
song: nailed to the floor
tabber: Wobbler


intro
e|---------------------------------------------------|
b|---------------------------------------------------|
g|---------------------------------------------------|
d|--8-8----8-8----8-8----8-8------44-444-4-33-333-3--|
a|--8-8----8-8----8-8----8-8------44-444-4-33-333-3--|
e|--6-6----6-6----6-6----6-6------22-222-2-11-111-1--|


verse 
e|------------------------------------------------------|
b|------------------------------------------------------|
g|------------------------------------------------------|
d|-8-8-xx-8-8-8-xx-8-8-8-xx-8-8-8-xx-44-444-4-33-333-3--|
a|-8-8-xx-8-8-8-xx-8-8-8-xx-8-8-8-xx-44-444-4-33-333-3--|
e|-6-6-xx-6-6-6-xx-6-6-6-xx-6-6-6-xx-22-222-2-11-111-1--|

bridge

e|-----------------------------------------------|
b|-------------------------------------1~--------|
g|-------------------------------------2~--------|
d|-44444444-66666666-44444444-33333333-3~--------|
a|-44444444-66666666-44444444-33333333-3~--------|
e|-22222222-44444444-22222222-11111111-1~--------|
pm ........ ........ ........ ........

chorus part I

e|---------------------------------------|
b|---------------------------------------|
g|----------------------55-555-5/77-777--|
d|--88-8-66-6-44-4-88-8-55-555-5/77-777--|
a|--88-8-66-6-44-4-88-8-33-333-3/55-555--|
e|--66-6-44-4-22-2-66-6------------------|

chorus part II
e|----------------------|
b|----------------------|
g|------(5)--(7)--(8)---|
d|-(8)---5-55-7-77-8-88-|
a|--8-88-3-33-5-55-6-66-|
e|--6-66----------------|
pm    ..   ..   ..   ..

interlude
e|-------------------------------|
b|-------------------------------|
g|-------7~-778~-88--------------|
d|--5~-557~-778~-88-1010-888-666-|
a|--5~-555~-556~-66-1010-888-666-|
e|--5~-33------------8-8-666-444-|

outro
e|-----------------------------------------------------------|
b|-----------------------------------------------------------|
g|-----------------------------------------------------------|
d|--6-66-4-44-2-22-3-3-3-5~----------------------------------|
a|--6-66-4-44-2-22-3-3-3-5~----------------------------------|
e|--4-44-2-22-0-00-1-1-1-3~----------------------------------|
pm    ..   ..   .. . . .
Suggest correction
Give kudos to tab author, rate the tab!
1 2 3 4 5
comments
print report bad tab
guest
You may want to rate the tab now too:
select rating
Wanna post a correction for this tab? Suggest correction