Oops, an error
Loading. Please wait.

Ex-Tinction Tab

1,862 views 6 this week
1 commentread comment
1 2 3 4 5
3 more votes to show rating
add to favorites
launch autoscroll
font size
0
reset
how to read this tab
guitar tuner
Autoscroll
slow
fast
+/-
esc
set tempo
stop
Help us to improve Ultimate-Guitar.com Take our survey!
×
Author
Difficulty
Tuning
intermediate
C G C F A D
Artist: I Am Abomination
Song: "Ex-tinction"
Album: Jaw-Dropper
Tuning: Drop C (CGCFAD)
Tabbed by seanyboy88


i think it's pretty accurate, a few things here and there that aren't perfect,
but this is my first tab so i'm still training my ears. anyways, happy playing!

ps.
i didn't tab the rhythms so you have to figure it out for yourself, sorry :D


Intro
|---------------------------------------------------------|
|---------------------------------------------------------|
|-----4/7p4---4-----4-----2-------4/7p4---4---------------|
|-2-2-------5-----5-----4---4-2-2-------5-----5p4h5/9p7/5-|
|---------------7-----5---------------------7-------------|
|---------------------------------------------------------|

Sweep part
|-<7>-|
|-<7>-|
|-<7>-|
|-<7>-|
|-----|
|-----|


|----------12h15/19-15h19p17p15/14h15p14/12h14----------12h15/19-15h19p17p14h15p14-----|
|-------12-------------------------------------------12----------------------------17b-|
|----12-------------------------------------------12-----------------------------------|
|-14-------------------------------------------14--------------------------------------|
|--------------------------------------------------------------------------------------|
|--------------------------------------------------------------------------------------|


|----------12h15/19-15h19p17p15/14h15p14/12h14----------12h15/19-15h19p15/14-----|
|-------12-------------------------------------------12----------------------17b-|
|----12-------------------------------------------12-----------------------------|
|-14-------------------------------------------14--------------------------------|
|--------------------------------------------------------------------------------|
|--------------------------------------------------------------------------------|


|-15h19p15-14h15p14-12h14h15p14p12-------------------------||-------------------------|
|----------------------------------12----12----10----10----||-15----15----10----10----|
|-------------------------------------12----12----12----12-||----12----12----12----12-|
|----------------------------------------------------------||-------------------------|
|----------------------------------------------------------||-------------------------|
|----------------------------------------------------------||-------------------------|


|-----------------------------|
|-----------------------------|
|--------------------5--5-5-5-|
|-7-7--5-5--2-2--2-5-5--5-5-5-|
|-7-7--5-5--2-2--2-5-3--3-3-3-|
|-7-7--5-5--2-2--2-5----------|

Verse
|---------------------|
|---------------------|
|-5-5----2----------5-|
|-5-5--2-5-0-5-7-5--5-|
|-3-3--2---0-5-7-5--3-|
|------2---0-5-7-5----|


|--------------------------------------------|
|-----------8p7------------------------------|
|-5---4-5/9--------------2---2--5--5/4-----4-|
|-5-5-----------9--2-0-2-5-2-5--5--5/4---4---|
|-3----------------2-0-2---2----3--3/2-2-----|
|------------------2-0-2---2-----------------|

Pre-chorus
|-------------------------------------------------------------------------|
|-------------------------------------------------------------------------|
|--------------------------------------------4h7p4------------------------|
|-2---------7 -7 ---7-7--2---------7 -7 ---4--------2---------7 -7 ---7-7-|
|-2---7h9---10-10---9-9--2---7h9---10-10------------2---7h9---10-10---9-9-|
|-2----------------------2--------------------------2---------------------|


|----------------------------|
|----------------------------|
|----------------------------|
|-2---------7 -7 -222-222-4*-|
|-2---7h9---10-10-222-222----|
|-2---------------222-222----|


|------------------------------------------------------|
|--------------------------------------------------<7>-|
|----------------------7p4---------------------<7>-----|
|-2----------7 -7 ---4------2----------7 -7 -----------|
|-2---9h10---10-10----------2---9h10---10-10-----------|
|-2-------------------------2--------------------------|


|----------------------|
|----------------------|
|--------2---2---2---2-|
|-2222-5---5---5---5---|
|-2222-----------------|
|-2222-----------------|
  ...
Chorus
|------------------------------------------------------------------|
|-------15------12----10h12p10----------15-------12----12h15p12----|
|-12h14----12h4----12----------12-12h14----12h14----12----------11-|
|------------------------------------------------------------------|
|------------------------------------------------------------------|
|------------------------------------------------------------------|


|--------------------------------------------------------------------------|
|-------15------12----10h12p10----------15-12h15/17-15-17b-15--------------|
|-12h14----12h4----12----------12-12h14-----------------------16b--------2-|
|-----------------------------------------------------------------2--0-2-5-|
|-----------------------------------------------------------------2--0-2---|
|-----------------------------------------------------------------2--0-2---|


Pre-chorus pattern change (just listen to it)


Break-down
|-----
|-----
|---2-
|-2-5-
|-2---
|-2---


Chorus
|------------------------------------------------------------------|
|-------15------12----10h12p10----------15-------12----12h15p12----|
|-12h14----12h4----12----------12-12h14----12h14----12----------11-|
|------------------------------------------------------------------|
|------------------------------------------------------------------|
|------------------------------------------------------------------|


|------------------------------------------------------------------------|
|-------15------12----10h12p10----------15-12h15/17-15-17b-15------------|
|-12h14----12h4----12----------12-12h14-----------------------16b--------|
|-----------------------------------------------------------------2--0-2-|
|-----------------------------------------------------------------2--0-2-|
|-----------------------------------------------------------------2--0-2-|


|-12-------14------------------|
|----12-------12----12b--------|
|-------12-------12------------|
|-----------------------0--2-2-|
|-----------------------0--2-2-|
|-----------------------0--2-2-|
Suggest correction
Give kudos to tab author, rate the tab!
1 2 3 4 5
comments
print report bad tab
1 comment total.
0 reply
seanyboy88 31 Oct 12, 2010 01:43 PM

the 4s in the chorus section should be 14.

12h14

my bad :D

guest
You may want to rate the tab now too:
select rating
Wanna post a correction for this tab? Suggest correction