Oops, an error
Loading. Please wait.

Brain Damage Bass Tab

1,329 views 3 this week
1 commentread comment
1 2 3 4 5
please rate
add to favorites
launch autoscroll
font size
0
reset
guitar tuner
Autoscroll
slow
fast
+/-
esc
set tempo
stop
Help us to improve Ultimate-Guitar.com Take our survey!
×
-----------------------------------------------------------------------------
                             BRAIN DAMAGE - I Am Empire
-----------------------------------------------------------------------------

Tabbed By : White Nightman
e-mail: sunblast5@hotmail.com
http://www.toothandnail.com/artists/290/I_Am_Empire/

Intro
Gb|--------------------------------------------|
Db|--------------------------------------------|
Ab|---3---3h5----3---3h5----3---3h5----3-------|
Db|-0---0------0---0------0---0------0---0-6-5-|

Fill
Gb|----------------------|
Db|----------------------|
Ab|----------------------|
Db|-0-0--0-0--0-0--6-5-3-|

Verse                                      2nd time
Gb|-------------------------------------|-------------|
Db|-------------------------------------|-5-3---------|
Ab|-------------------------------------|-----5-3-----|
Db|-0-0-00--0-0-00--0-0-00--0-0-00---00-|---------5-3-|

Chorus Part 1
Gb|--------------------------------|
Db|--------------------------------|
Ab|-1-1-11--1-1-11----------0-0-00-|
Db|-----------------3-3-33---------|x2

Chorus Part 2    
Gb|--------------------------------|
Db|--------------------------------|
Ab|---------3-3-33--1-1-11--4-4-44-|
Db|-0-0-00-------------------------|
                                   2nd time
Gb|-------------------------------|------|
Db|-------------------------------|------|
Ab|---------3-3-33--1-1-11--0-0-0-|-0----|
Db|-0-0-00------------------------|--530-|

Bridge
Gb|------------------------------|
Db|------------------------------|
Ab|--------3---------3---------3-|
Db|-0-0-0-----0-0-0-----0-0-0----|

Gb|---------------------------------|
Db|---------------------------------|
Ab|---------------------------------|
Db|-0-3-4-467--0-3-4-467--0-3-4-467-|

Outro
Gb|------------------------------------------------|
Db|------------------------------------------------|
Ab|-------3---4h5----3---4h5----3---4h5----3-------|
Db|-13\-0---0------0---0------0---0------0---0-6-5-|

Gb|-----------------------------------------|
Db|-----------------------------------------|
Ab|---3---4h5----3---4h5--------------------|
Db|-0---0------0---0------00-00-00-6-5-3--0-|

Order:
Intro
Fill
Verse
Chorus 1&2
Intro
Verse
Chorus 1&2
Bridge
Chorus 2
Outro
Suggest correction
Give kudos to tab author, rate the tab!
1 2 3 4 5
comments
print report bad tab
1 comment total.
0 reply
thefletch13 554 wrote on August 22 2012, 01:39 pm

Its perfect except for one part. The part at the end of the verse should actually go like this:

Gb|-------------|
Db|-5-3---------|
Ab|-----5-3-----|
Db|---------5-3-|

guest
You may want to rate the tab now too:
select rating
Wanna post a correction for this tab? Suggest correction