Oops, an error
Loading. Please wait.

Saddest Story Never Told Tab

2,122 views 1 this week
no commentswrite comment
1 2 3 4 5
excellent!
x 3
add to favorites
launch autoscroll
font size
0
reset
how to read this tab
guitar tuner
Autoscroll
slow
fast
+/-
esc
set tempo
stop
Help us to improve Ultimate-Guitar.com Take our survey!
×
Author
I AM GHOST - SADDEST STORY NEVER TOLD
TABBED BY GEORGE WILLIAMS 
DROPPED D TUNING (DADBGE) 

well on their myspace they have stated that they're making the video for 
this song, so i decided to tab it up before the video release. it's not a
hard song, and has taken me about 20 mins to get the full song tab, so you
shouldnt find it too difficult. however, i have just used someones vid on 
youtube to listen to the song, as im too cheap to buy the album. so just
comment with any corrections you have.
cheeeers.
oh and have a look at my other i am ghost tabs (Y) good lad.

legend: 

| b    bend 
| r    return 
| /    slide up 
| \    slide down 
| h    hammer on 
| p    pull off 
| *    pinch harmonic 
| ~    tremolo 
| ...  palm muted 
| x    muted note 
| (n)  optional note 
| tp   tremolo picked
| ==   hold bend


INTRO:

|----------------------|-------------------------------------|
|----------------------|-------------------------------------|
|----------------------|-14-14-14-14-14-14-13-13-13-13-13-13-|
|----------------------|--x--x--x--x--x--x--x--x--x--x--x--x-|
|-4--4-4--4-7--2-2-2-2-|-12-12-12-12-12-12-11-11-11-11-11-11-|
|-4--4-4--4-7--2-2-2-2-|-------------------------------------|

|-------------------------------|--------------------|
|-------------------------------|--------------------|
|-11-11-11-11-11-11-9-9-9-9-9-9-|--------------------|
|--x--x--x--x--x--x-x-x-x-x-x-x-|--------------------|
|--9--9--9--9--9--9-7-7-7-7-7-7-|-4--4-4--4-7--2--2--|
|-------------------------------|-4--4-4--4-7--2--2--|

|-------------------------------------------------------------------------|
|-------------------------------------------------------------------------|
|-19-19-19-19-19-19-18-18-18-18-18-18-16-16-16-16-16-16-14-14-14-14-14-14-|
|--x--x--x--x--x--x--x--x--x--x--x--x--x--x--x--x--x--x--x--x--x--x--x--x-|
|-17-17-17-17-17-17-16-16-16-16-16-16-14-14-14-14-14-14-12-12-12-12-12-12-|
|-------------------------------------------------------------------------|

|-------------------------------------------------------------------|
|-------------------------------------------------------------------|
|-13--13-13-13--13--13-13-13--13--13-13-13--14-14-14-14-14-14--7~~--|
|--x---x--x--x---x---x--x--x---x---x--x--x---x--x--x--x--x--x--x----|
|-11--11-11-11--11--11-11-11--11--11-11-11--12-12-12-12-12-12--5~~--|
|-------------------------------------------------------------------|


VERSE:

|---------------------------------|
|---------------------------------|
|---------------------------------|
|---------------------------------| x2
|-4-4-4-4-4-4-----0-0-0-0-0-0-----|
|-4-4-4-4-4-4-x4--0-0-0-0-0-0-x4--|

|------------------------------|------9-10-9---------9-10-9--------|
|------------------------------|---10--------10---10--------10-----|
|------------------------------|-----------------------------------|
|------------------------------|-------------------------------x2--| x2
|-----2---2--------2---2-------|-----------------------------------|
|-2-2---2---2--2-2---2---2-x2--|-0--------------0------------------|


CHORUS:

|-------------------------------------------------------------------------|
|-------------------------------------------------------------------------|
|-14-14-14-14-14-14-14-14-14-14-14-14-19-19-19-19-19-19-19-19-19-19-19-19-|
|--x--x--x--x--x--x--x--x--x--x--x--x--x--x--x--x--x--x--x--x--x--x--x--x-|
|-12-12-12-12-12-12-12-12-12-12-12-12-17-17-17-17-17-17-17-17-17-17-17-17-|
|-------------------------------------------------------------------------|

|-------------------------------------------------------------------------|
|-------------------------------------------------------------------------|
|-18-18-18-18-18-18-18-18-18-18-18-18-16-16-16-16-16-16-14-14-14-14-14-14-|
|--x--x--x--x--x--x--x--x--x--x--x--x--x--x--x--x--x--x--x--x--x--x--x--x-|
|-16-16-16-16-16-16-16-16-16-16-16-16-14-14-14-14-14-14-12-12-12-12-12-12-|
|-------------------------------------------------------------------------|

|-------------------------------------------------------------------------|
|-------------------------------------------------------------------------|
|-14-14-14-14-14-14-14-14-14-14-14-14-13-13-13-13-13-13-14-14-14-14-14-14-|
|--x--x--x--x--x--x--x--x--x--x--x--x--x--x--x--x--x--x--x--x--x--x--x--x-|
|-12-12-12-12-12-12-12-12-12-12-12-12-11-11-11-11-11-11-12-12-12-12-12-12-|
|-------------------------------------------------------------------------|

|-----|
|-----|
|-7~--|
|-x---|
|-5~--|
|-----|


REPEAT VERSE, BUT WITH THE ADDITION IN THE FIRST SECTION OF:

|--------------------------------------------------------------------|
|-7-7----7-7----7-7----7-7----10-10----10-10----10-10----10-10-10-10-|
|-x-x----x-x----x-x----x-x-----x--x-----x--x-----x--x-----x--x--x--x-|
|-4-4----4-4----4-4----4-4-----7--7-----7--7-----7--7-----7--7--7--7-|
|--------------------------------------------------------------------|
|--------------------------------------------------------------------|


>REPEAT CHORUS<
>REPEAT CHORUS<


SOLO:

|-14--------14-------------17~--|-16-17-16--------------------------------|
|-17b19-----17b19.5r17--14------|----------17-14--------------------------|
|-------------------------------|----------------14-13-14-13--------------|
|-------------------------------|----------------------------14-----------|
|-------------------------------|-------------------------------16-14-12~-|
|-------------------------------|-----------------------------------------|

|--------------------------------------------|
|--------------------------12h14-14p12-------|
|----------------11--11h14-------------14p11-|
|-7-9-x-9b11~--------------------------------|
|--------------------------------------------|
|--------------------------------------------|

|------------------------------------------------------------------------|
|------------------------------------------------------------------------|
|-11-14-14-14-14-14-13-13-13-13-13-13------------------------------------|
|-------------------------------------14-14-14-14-14-14-11h12p11---------|
|----------------------------------------------------------------12p9h12-|
|------------------------------------------------------------------------|


BREAK:

|-------------------------------------------|
|-7-7---7-7---7-7---8-8-8-8-8-8-8-8-8-8-8-8-|
|-x-x---x-x---x-x---x-x-x-x-x-x-x-x-x-x-x-x-|
|-4-4---4-4---4-4---5-5-5-5-5-5-5-5-5-5-5-5-| x2
|-------------------------------------------|
|-------------------------------------------|

|----------------------------------------------------------|
|-7-7-x-x-x--7-7-x-x-x--7-7-x-x-x--8-8-8-8-8-8-8-8-8-8-8-8-|
|-x-x-x-x-x--x-x-x-x-x--x-x-x-x-x--x-x-x-x-x-x-x-x-x-x-x-x-|
|-4-4-x-x-x--4-4-x-x-x--4-4-x-x-x--5-5-5-5-5-5-5-5-5-5-5-5-| 
|----------------------------------------------------------|
|----------------------------------------------------------|

|----------------------------------------------------------------|
|-7-7-7-7-7-7-7-7-7-7-7-7-7-7-7-7-7-7--8--8-8--8--8-8--8--8-8----|
|-x-x-x-x-x-x-x-x-x-x-x-x-x-x-x-x-x-x--x--x-x--x--x-x--x--x-x----|
|-4-4-4-4-4-4-4-4-4-4-4-4-4-4-4-4-4-4--5--5-5--5--5-5--5--5-5----|
|-------------------------------------------------------------x\-|
|-------------------------------------------------------------x\-|

>REPEAT CHORUS<
>REPEAT INTRO<

and that's it (Y) have fun. 
comment, rate, whateverr.
Suggest correction
Give kudos to tab author, rate the tab!
1 2 3 4 5
comments
print report bad tab
guest
You may want to rate the tab now too:
select rating
Please do not post tabs as comments. Select "correction" instead!