Oops, an error
Loading. Please wait.

They Always Come Back Tab

561 views 1 this week
no commentswrite comment
1 2 3 4 5
please rate
add to favorites
launch autoscroll
font size
0
reset
how to read this tab
guitar tuner
Autoscroll
slow
fast
+/-
esc
set tempo
stop
Help us to improve Ultimate-Guitar.com Take our survey!
×
Author
I AM GHOST - THEY ALWAYS COME BACK
TABBED BY GEORGE WILLIAMS 
DROPPED D TUNING (DADGBE) 

rightey nearly finished the album. only a couple of songs left to tab.
nice and easy one here, but with good use of Dmajor.
comment with any corrections you have.
cheeeers.
oh and have a look at my other i am ghost tabs (Y) good lad.

legend: 

| b    bend 
| r    return 
| /    slide up 
| \    slide down 
| h    hammer on 
| p    pull off 
| *    pinch harmonic 
| ~    tremolo 
| ...  palm muted 
| x    muted note 
| (n)  optional note 
| tp   tremolo picked
| ==   hold bend


INTRO:

|-------------------------------|-------------------------------|
|-------------------------------|-------------------------------|
|---------------------------7-7-|-11-11-11-11-11-11-9-9-9-9-9-9-|
|---------------------------x-x-|--x--x--x--x--x--x-x-x-x-x-x-x-|
|---------------------------5-5-|--9--9--9--9--9--9-7-7-7-7-7-7-|
|-0-4h5-0-5p4-0-4h5-0-5p4-0-----|-------------------------------|
      play three times


VERSE:

|-------------------------------------------------------------|
|-------------------------------------------------------------|
|-7-7---------------------------7-7---------------------------|
|-x-x---------------------------x-x---------------------------|
|-5-5-5-5-5-5-5-5-5-5-5-5-5-5-5-5-5-0-0-0-0-0-0-0-0-0-0-0-0-0-|
|-----5-5-5-5-5-5-5-5-5-5-5-5-5-----0-0-0-0-0-0-0-0-0-0-0-0-0-|

|-------------------------------------------------------------|
|-------------------------------------------------------------|
|-6-6---------------------------11-11-11-11-11-11-9-9-9-9-9-9-|
|-x-x----------------------------x--x--x--x--x--x-x-x-x-x-x-x-|
|-4-4-4-4-4-4-4-4-4-4-4-4-4-4-4--9--9--9--9--9--9-7-7-7-7-7-7-|
|-----4-4-4-4-4-4-4-4-4-4-4-4-4-------------------------------|

|-------------------------------------------------------------|
|-------------------------------------------------------------|
|-7-7---------------------------7-7---------------------------|
|-x-x---------------------------x-x---------------------------|
|-5-5-5-5-5-5-5-5-5-5-5-5-5-5-5-5-5-0-0-0-0-0-0-0-0-0-0-0-0-0-|
|-----5-5-5-5-5-5-5-5-5-5-5-5-5-----0-0-0-0-0-0-0-0-0-0-0-0-0-|

|-------------------------------------------------------------------|
|-------------------------------------------------------------------|
|-6-6---------------------------11-11-11-11-11-11-14-14-14-14-14-14-|
|-x-x----------------------------x--x--x--x--x--x--x--x--x--x--x--x-|
|-4-4-4-4-4-4-4-4-4-4-4-4-4-4-4--9--9--9--9--9--9-12-12-12-12-12-12-|
|-----4-4-4-4-4-4-4-4-4-4-4-4-4-------------------------------------|


PRECHORUS:

|-----------------------------------|-----------------------------------|
|-----------------------------------|-----------------7-------8-----10\-|
|-12--12-12-11--11-11--7--7-7-7-7-7-|-7-------9-------------------------|
|--x---x--x--x---x--x--x--x-x-x-x-x-|---7-7-7---7-7-7---7-7-7---7-7-----|
|-10--10-10--9---9--9--5--5-5-5-5-5-|-----------------------------------|
|-----------------------------------|-----------------------------------|
       play twice


CHORUS:
play twice

|---------------------------|-----------------------------------------------------|
|-------------8-8-7-7-10----|-----------------------------------------------------|
|-----7-7-9-9------------7~-|-11-11-11-11-11-11-11-11-11-11-9-9-9-9-9-9-6-6-6-6-6-|
|-7-7-----------------------|--x--x--x--x--x--x--x--x--x--x-x-x-x-x-x-x-x-x-x-x-x-|
|---------------------------|--9--9--9--9--9--9--9--9--9--9-7-7-7-7-7-7-4-4-4-4-4-|
|---------------------------|-----------------------------------------------------|
      play twice


RE-ENTRY & VERSE 2:

|-------------------------------|-------|
|-------------------------------|-------|
|---------------------------7-7-|-7~~~~-|
|-0-4h5-0-5p4-0-4h5-0-5p4-0-x-x-|-x-----|
|---------------------------5-5-|-5~~~~-|
|-------------------------------|-------|

|----------------------------------------------------|
|----------------------------------------------------|
|----7-7--7--7--7--7--7--7-7-7-7--7--7--7--7--7--7-7-|
|----x-x--x--x--x--x--x--x-x-x-x--x--x--x--x--x--x-x-|
|-x\-5-5--5--5--5--5--5--5-5-5-5--5--5--5--5--5--5-5-|
|-x\-------------------------------------------------|

|-----------------------------------------------------------------------------------|
|-----------------------------------------------------------------------------------|
|-11-11-----------------------11-11-11-11-11-11/16-16-16-16-16-16-14-14-14-14-14-14-|
|--x--x------------------------x--x--x--x--x--x--x--x--x--x--x--x--x--x--x--x--x--x-|
|--9--9-9-9-9-9-9-9-9-9-9-9-9--9--9--9--9--9--9/14-14-14-14-14-14-12-12-12-12-12-12-|
|-----------------------------------------------------------------------------------|

>REPEAT PRECHORUS<
>REPEAT CHORUS<
>REPEAT CHORUS<


BRIDGE:

|------------------------------------------------------|--------------------------|
|----------------------------------10b12r10-8-7b8r7----|--------------------------|
|---------------6-6-6-6-7-7-7-----------------------7~-|-----7---7-9~-6~--7-6-----|
|-9-9-9-9-9-9-9---------------7~-7---------------------|-9-9---9--------------9~--|
|------------------------------------------------------|--------------------------|
|------------------------------------------------------|--------------------------|

|--------------------------------------------------------|--------------------------|
|------------------------------------10b12r10-8-7b8r7----|--------------------------|
|---------------6-6-6-6-7-7-7-------------------------7~-|-----7---7-9~-6~----6-7~--|
|-9-9-9-9-9-9-9---------------x-7~-7---------------------|-9-9---9----------9-------|
|-----------------------------x-0------------------------|--------------------------|
|-----------------------------x--------------------------|--------------------------|


BREAK:
clean, strum these chords, play twice:

|-----------------------------|
|-----------------------------|
|-7------7-----11------9------|
|-7------5------9------7------|
|-0------5------9------7------|
|-0------5------9------7------|

>REPEAT PRECHORUS<
>REPEAT PRECHORUS<
>REPEAT CHORUS<
>REPEAT CHORUS


ENDING:

|-------------------------------|---|
|-------------------------------|---|
|---------------------------7-7-|-7-|
|-0-4h5-0-5p4-0-4h5-0-5p4-0-x-x-|-x-| <- last chord.
|---------------------------5-5-|-5-|
|-------------------------------|---|
       play 4 times 


and thats it. im using crappy laptop speakers atm, so theres probably a 
couple of small errors, but i'll sort them when i put my decent speakers on
in the morning. 
cheers for looking.
Suggest correction
Give kudos to tab author, rate the tab!
1 2 3 4 5
comments
print report bad tab
guest
You may want to rate the tab now too:
select rating
Wanna post a correction for this tab? Suggest correction