Oops, an error
Loading. Please wait.

This Is Home Tab

version 1
version 1

Solo

Whole song

1,215 views 1 this week
no commentswrite comment
1 2 3 4 5
x 3
add to favorites
launch autoscroll
font size
0
reset
how to read this tab
guitar tuner
Autoscroll
slow
fast
+/-
esc
set tempo
stop
Help us to improve Ultimate-Guitar.com Take our survey!
×
Difficulty
Tuning
intermediate
D A D G B E
This is home (solo) - I am Ghost

last night i got on this site and i couldnt find anything on the solo of this song so i 
down and figured it out

its in drop d

i started from the riff before the solo, try to figure out the rhythm


E||----------------------------|---------------------------------|
B||----------------------------|---------------------------------|
G||----------------------------|-----11--11--14--14--14--14\-----|
D||-----------------9----9--9--|---------------------------------|
A||-----------------9----9--9--|------9---9--12--12--12--12\-----|
D||--9-9-9-9-9-9-9--9----9--9--|---------------------------------|

----------------------------|-------------------------|
----------------------------|-------------------------|
-----------------7----7--7--|----------------6--6-----|
----------------------------|-------------------------|
-----------------5----5--5--|----------------4--4-----|
--5-5-5-5-5-5-5-------------|-----4--4----------------|

----------------------------|---------------------------------|
----------------------------|---------------------------------|
----------------------------|-----11--11--14--14--14--14\-----|
-----------------9----9--9--|---------------------------------|
-----------------9----9--9--|------9---9--12--12--12--12\-----|
--9-9-9-9-9-9-9--9----9--9--|---------------------------------|

----------------------------|-------------------------|
----------------------------|-------------------------|
-----------------7----7--7--|----------------6--6-----|
----------------------------|-------------------------|
-----------------5----5--5--|----------------4--4-----|
--5-5-5-5-5-5-5-------------|-----4--4----------------|

----------------------------------|---------------------------|
--8-7-5-7-5---5-------------------|---------------------------|
------------7---7-6-7-6-4-6-4---4-|---------------------------|
------------------------------7---|--7-5-7-5-4-5-4-2-4--------|
----------------------------------|---------------------------|
----------------------------------|---------------------------|

-------------------|--------------------|----------------------------------|
-------------------|--7-----------------|--8-7-5-7-5---5-------------------|
----------6--------|--------------------|------------7---7-6-7-6-4-6-4---4-|
--8----------------|--------------------|------------------------------7---|
-------------------|--------------------|----------------------------------|
-------------------|--------------------|----------------------------------|

---------------------------|---------------------|
---------------------------|---------------------|
---------------------------|---------------------|
--7-5-7-5-4-5-4-2-4--------|--8--------11--------|
---------------------------|---------------------|
---------------------------|---------------------|


 -----------------------------|--------------------------------------------|
------------------------------|--------------------------------------------|
-11---------------------------|--------------------------------------------|
--------11p-9-9-12p-9-9-11p-9-|--9-12p-9-9-11p-9-9-12p-9-9-11p-9-9-12p-9-9-|
------------------------------|--------------------------------------------|
------------------------------|--------------------------------------------|

9p-7---10p-7---9p-7---10p-7---9p-7---10p-|--7h---9p-7---10p-7--------------|
-----7-------7------7-------7------7-----|-----7------7-------7-15b--------|
-----------------------------------------|---------------------------------|
-----------------------------------------|---------------------------------|
-----------------------------------------|---------------------------------|
-----------------------------------------|---------------------------------|

-----------------------|-----------------------|-----------------------|
--15b--------15--------|--14--------17b--------|--17b--------17--------|
-----------------------|-----------------------|-----------------------|
-----------------------|-----------------------|-----------------------|
-----------------------|-----------------------|-----------------------|
-----------------------|-----------------------|-----------------------|


            quarter bend on the 14's
------------14b--------|--14b--------14--------|
--15-------------------|-----------------------|
-----------------------|-----------------------|
-----------------------|-----------------------|
-----------------------|-----------------------|
-----------------------|-----------------------|

--12--------17-17-17-17-17-17-17-17-|
------------------------------------|
------------------------------------|
------------------------------------|
------------------------------------|
------------------------------------|

--17-17-17-17-17-17-17-18-18-18-18-18-18-18-18-18-|--18-18-18-19--------||
--------------------------------------------------|---------------------||
--------------------------------------------------|---------------------||
--------------------------------------------------|---------------------||
--------------------------------------------------|---------------------||
--------------------------------------------------|---------------------||

tabbed by Cameron Stacy

Tablature Legend
----------------
L - tied note
x - dead note
g - grace note
(n) - ghost note
> - accentuded note
NH - natural harmonic
AH - artificial harmonic
TH - tapped harmonic
SH - semi harmonic
PH - pitch harmonic
h - hammer on
p - pull off
b - bend
br - bendRelease
pb - preBend
pbr - preBendRelease
brb - bendReleaseBend
\n/ - tremolo bar dip
\n - tremolo bar dive
-/n - tremolo bar Release up
/n\ - tremolo bar inverted dip
/n - tremolo bar return
-\n - tremolo bar Release down
S - shift slide
s - legato slide
/ -  slide into from below or out of upwards
\ -  slide into from above or out of downwards
~ - vibrato
W - wide vibrato
tr - trill
TP - tremolo picking
T - tapping
S - slap
P - pop
< - fade in
^ - brush up
v - brush down
Suggest correction
Give kudos to tab author, rate the tab!
1 2 3 4 5
comments
print report bad tab
guest
You may want to rate the tab now too:
select rating
Wanna post a correction for this tab? Suggest correction