Oops, an error
Loading. Please wait.

Those We Leave Behind Tab

1,457 views 1 this week
no commentswrite comment
1 2 3 4 5
x 3
add to favorites
launch autoscroll
font size
0
reset
how to read this tab
guitar tuner
Autoscroll
slow
fast
+/-
esc
set tempo
stop
Help us to improve Ultimate-Guitar.com Take our survey!
×
Author
I AM GHOST - THOSE WE LEAVE BEHIND
TABBED BY GEORGE WILLIAMS 
DROPPED D TUNING (DADBGE) 

err workin my way through through the album, and this was a request, so i
did it. its not hard at all, but sounds quite good. so go for it. 
comment with any corrections you have.
cheeeers.
oh and have a look at my other i am ghost tabs (Y) good lad.

legend: 

| b    bend 
| r    return 
| /    slide up 
| \    slide down 
| h    hammer on 
| p    pull off 
| *    pinch harmonic 
| ~    tremolo 
| ...  palm muted 
| x    muted note 
| (n)  optional note 
| tp   tremolo picked
| ==   hold bend


INTRO:

|----------------------------------------|
|----------------------------------------|
|----------------------------------------|
|--------------------12-----14---15---14-|
|-----12---13-12-------------------------|
|-0-0----0-------0-0----0-0----0----0----|

|-----------------------------------------|
|-----------------------------------------|
|------------------------------15---14----|
|--------------------12---14-----------15-|
|-----12---13-12--------------------------|
|-0-0----0-------0-0----0----0----0-------|

|----------------------------------------|
|----------------------------------------|
|----------------------------------------|
|--------------------12-----14---15------|
|-----12---13-12-------------------------|
|-0-0----0-------0-0----0-0----0----0-0--|

|-----------------------------------------------|
|-----------------------------------------------|
|-----------------------------------------------|
|-----12---12-12---12--------14----14-14----14--|
|-8-8----8-------8-----10-10----10-------10-----|
|-8-8----8-------8-----10-10----10-------10-----|

>REPEAT INTRO<


PRE-VERSE:

|-----------------------|
|-----10b11------10b11--|
|-----------------------|
|-----------------------|
|-0-0--------0-0--------|
|-0-0--------0-0--------|


VERSE:
i know its not the right number of strums, but its 1 in the morning and i
cba at the moment. 

|-------------------------------------------------------------|
|-------------------------------------------------------------|
|-------14-14-14-14-14-14-14-14-------12-12-12-12-12-12-12-12-|
|--------x--x--x--x--x--x--x--x--------x--x--x--x--x--x--x--x-|
|-0-0-0-12-12-12-12-12-12-12-12-8-8-8-10-10-10-10-10-10-10-10-|
|-0-0-0-------------------------8-8-8-------------------------|

|---------------------------------------------------------------|
|---------------------------------------------------------------|
|----------9-9-9-9-9-9--10--12----------------------------------|
|----------x-x-x-x-x-x---x---x----------------------------------|
|-10-10-10-7-7-7-7-7-7---8--10-------5-----7-----8-----10---8---|
|-10-10-10-----------------------7-7---7-7---7-7---7-7----7---7-|

REPEAT ABOVE

|-----------------------------------------------------------------|
|-----------------------------------------------------------------|
|-----------------------------------------------------------------|
|-----------------------------------------------------------------|
|-8-8-8-8-8-8-8-8-8-8-8-8-8-8-8-8-0-0-0-0-0-0-0-0-0-0-0-0-0-0-0-0-|
|-8-8-8-8-8-8-8-8-8-8-8-8-8-8-8-8-0-0-0-0-0-0-0-0-0-0-0-0-0-0-0-0-|

|---------------------------------------------------------------------|
|---------------------------------------------------------------------|
|---------------------------------------------------------------------|
|--------------------------------------------------------------7b7.5--|
|-3--3-3-3--3-3-3--3-3-3--3-3-3--3-3-3--3-3-3--3-3-3--3-3--7----------|
|-3--3-3-3--3-3-3--3-3-3--3-3-3--3-3-3--3-3-3--3-3-3--3-3--7---7b7.5--|


CHORUS:

|-----------------------------------------------------------------|---------------------|
|-----------------------------------------------------------------|---------------------|
|-7-7-7-7-7-7-7-7-15-15-15-15-15-15-15-15-14-14-14-14-14-14-14-14-|-12-12-12-12-9-9-9-9-|
|-x-x-x-x-x-x-x-x--x--x--x--x--x--x--x--x--x--x--x--x--x--x--x--x-|--x--x--x--x-x-x-x-x-|
|-5-5-5-5-5-5-5-5-13-13-13-13-13-13-13-13-12-12-12-12-12-12-12-12-|-10-10-10-10-7-7-7-7-|
|-----------------------------------------------------------------|---------------------|

for the last section ^ on the second time through, replace it with this
section:

|-------------------------|
|-------------------------|
|-17-17-17-17-18-18-18-18-|
|--x--x--x--x--x--x--x--x-|
|-15-15-15-15-16-16-16-16-|
|-------------------------|


BRIDGE:

|----------------------------------------------------|--------------------|
|----------------------------------------------------|--------------------|
|----------------------------------------------------|--------------------|
|---------------7---5-----------8---7------7h8p7-----|------7-----7----7--|
|------------------------------------------------8---|--------------------|
|-0-0-0-0-0-0-0---0---0-0-0-0-0---0---0-0----------0-|-8--8---7-7---7-----|

|-------------------------------------------------------|
|-------------------------------------------------------|
|-------------------------------------------------------|
|-------------------------------------------------------|
|-0-0-----0-0---0-0--0-0-----0-0-0---0-0-0----0-0--0-0--|
|-0-0-----0-0---0-0--0-0-----0-0-0---0-0-0----0-0--0-0--|

|-----------------------------------------|
|-11--------7-------12--------11----------|
|-13b15~----9b11~---14b16~----13b15~~~~---|
|-----------------------------------------|
|-----------------------------------------|
|-----------------------------------------|
 ^ add random wahwah and vibrato
   im not sure if they're right, and i really cba to get the effects
   pedals out. so just play around.


CLEAN CHORUS:
strum these chords, and then let the last one ring.

|--------------------|
|--------------------|
|-2---10---5---12~---|
|-0----8---3---10~---|
|-0----8---3---10~---|
|-0----8---3---10~---|

>REPEAT CHORUS<

KEY CHANGE CHORUS:
for this, just move each octave chord up 1 step (ie. 2 frets)
its exactly the same pattern, just a step higher.


ENDING:

|--------------------------------------------------------------------|
|--------------------------------------------------------------------|
|---------------------------------5-5-5-5-4-4-4-4--------------------|
|-------------------------------------------------5-5-5-5-4-4-4-4----|
|-2-2-2-2-2-2-2-2-2-2-2-2-2-2-2-2---------------------------------2\-|
|-2-2-2-2-2-2-2-2-2-2-2-2-2-2-2-2---------------------------------2\-|


and that's it. so go nuts
any comments/corrections, just comment them. 
cheers.
Suggest correction
Give kudos to tab author, rate the tab!
1 2 3 4 5
comments
print report bad tab
guest
You may want to rate the tab now too:
select rating
Wanna post a correction for this tab? Suggest correction