Oops, an error
Loading. Please wait.

City Limits Bass Tab

version 1
version 1

Whole song

Interactive

1,547 views 1 this week
1 commentread comment
1 2 3 4 5
please rate
add to favorites
launch autoscroll
font size
0
reset
guitar tuner
Tab Pro tools
  • play this tab
  • loop segment
  • change instrument
  • show fretboard
  • metronome
×
Best way to learn
"City Limits"
Autoscroll
slow
fast
+/-
esc
set tempo
stop
Contributor
Difficulty
Intro
G|-----------------------------------------|
D|-----------------------------------------|
A|------------------10---------------------|
E|0-10-12-0-10-12-0---12-0-10-0-10-12---12-|
B|-----------------------------------------| x4

4th time miss out the last -12-

Verse
G|-----------------------------------------|
D|-----------------------------------------|
A|------------------10---------------------|
E|0-10-12-0-10-12-0---12-0-10-0-10-12---12-|
B|-----------------------------------------| x2

G|--------------------------------|
D|--------------4-----------------|
A|--3-5---3-5-----5---3---3-5---5-|
E|--------------------------------|
B|3-----3-----3----3---3----------| x2

Repeat Verse x3

Pre-chorus
G|-------11---------------|
D|-------12---------------|
A|------------------------|
E|8-------------8---------|
B|------------------------|

G|--------------------------------|
D|--------------4-----------------|
A|--3-5---3-5-----5---3---3-5-----|
E|--------------------------------|
B|3-----3-----3----3---3----------|

Riff
G|-----------------------------------------|
D|-----------------------------------------|
A|------------------10---------------------|
E|0-10-12-0-10-12-0---12-0-10-0-10-12-0-10-|
B|-----------------------------------------| x2

G|--------------------------------|
D|--------------4-----------------|
A|--3-5---3-5-----5---3---3-5---3-|
E|--------------------------------|
B|3-----3-----3----3---3------3---| x2

Repeat Verse x1

Pre-chorus
G|-------11---------------|
D|-------12---------------|
A|------------------------|
E|8-------------8---------|
B|------------------------|

G|-----------------------------------------|
D|-----------------------------------------|
A|------------------10---------------------|
E|0-10-12-0-10-12-0---12-0-10-0-10-12------|
B|-----------------------------------------|

Repeat Riff x1

Chorus
G|-------------------------------------|
D|-------------------------------------|
A|-------------------------------------|
E|3-----3-3----------------------------|
B|-------------3-----3-3---------------|

G|---------------------------------------|
D|---------------------------------------|
A|---------------------------------------|
E|----------------------------3----7-----|
B|5----5-5--x-x 3---5-----5-5---5--------| x2

Verse x3

Riff x1

Chorus

Intro/Outro x1

Paul Matthews gave this to me so I cleaned it up and chucked it on here.

Enjoy.
comments
We did not receive enough feedback on this tab! Please rate:
print report bad tab
1 2 3 4 5
1 comment total.
0 reply
Mr-Paci wrote on July 27 2015, 02:22 am

could you grab/make a tab for purple heart?

I want to post or [tab]
guest
You may want to rate the tab now too:
select rating
Please do not post tabs as comments. Select "correction" instead!