Oops, an error
Loading. Please wait.

Neon Sunrise tab

version 1
version 1

Whole song

Interactive

1,318 views 3 this week
no commentswrite comment
1 2 3 4 5
x 3
add to favorites
×
Save as Personal and add changes to this tab that will be seen only by you. Learn more ›
×
You can save this tab as Personal to edit and correct it or add notes. All changes will be seen only by you. Learn more »
launch autoscroll
font size
0
reset
how to read this tab
guitar tuner
edit
Autoscroll
slow
fast
+/-
esc
set tempo
stop
Neon Sunrise
I Am Giant - http://iamgiant.com/

Intro/Verse

Riff A:

e|---------------------------------------------------------------------------------------------|
B|---------------------------------------------------------------------------------------------|
G|-14-14-14-14-14-14-14/17----12-12-12-12-12-12/14~---10-10-10-10-10-10/12----9-9-9-10-9-7-----|
D|---------------------------------------------------------------------------------------------|
A|-12-12-12-12-12-12-12/15----10-10-10-10-10-10/12~---8--8--8--8--8--8-/10----7-7-7-8--7-5-----|
D|---------------------------------------------------------------------------------------------|

Riff B:

e|--------------------------------------------------------------------------|
B|--------------------------------------------------------------------------|
G|--------------------------------------------------------------------------|
D|---3-0-3-0-3-5-0-3----0-3-0-3-5-0-3~---0-3-0-3-5-0-3----0-3-0-3-5-3-0-----|
A|---3-0-3-0-3-5-0-3----0-3-0-3-5-0-3~---0-3-0-3-5-0-3----0-3-0-3-5-3-0-----|
D|---3-0-3-0-3-5-0-3----0-3-0-3-5-0-3~---0-3-0-3-5-0-3----0-3-0-3-5-3-0-----|


Pre Chorus:

(Guitar 1)

e|----0---0---0---0---0---0---0---0------|
B|--6---6---6---6---5---5--/8---8--------|
G|---------------------------------------| x 2
D|---------------------------------------|
A|---------------------------------------|
D|---------------------------------------|

e|----0---0---0---0---0---0---0---0------|
B|--6---6---6---6---5---5--\3---3--------|
G|---------------------------------------| x 1
D|---------------------------------------|
A|---------------------------------------|
D|---------------------------------------|

e|----0---0---0---0---0---0---0---0------|
B|--5---5---5---5---5---5---5---5--------|
G|---------------------------------------| x 1
D|---------------------------------------|
A|---------------------------------------|
D|---------------------------------------|

(Guitar 2)

e|----------------------------------------------------|
B|----------------------------------------------------|
G|----------------------------------------------------| x 4
D|---10-0-10-0-10-12-0-12-----10-0-10-0-10-12-0-12----|
A|----------------------------------------------------|
D|----------------------------------------------------|

(Guitars 1 & 2)

e|-----------------------------------------------------------------------------------|
B|-----------------------------------------------------------------------------------|
G|--10-10-10-10-10-10-10-10-10-10-10-10-10-10-10-10-9-9-9-9-9-9-9-9-9-9-9-9-9-9-9-9--| x 1
D|-----------------------------------------------------------------------------------|
A|--8--8--8--8--8--8--8--8--8--8--8--8--8--8--8--8--7-7-7-7-7-7-7-7-7-7-7-7-7-7-7-7--|
D|-----------------------------------------------------------------------------------|


Chorus:

(Guitar 1)

e|-------------------------------------------------------------------------------|
B|-------------------------------------------------------------------------------|
G|---1010101010101010-1010101010101010-1010101010101010-1010101010101010---------|
D|---1010101010101010-1010101010101010-1010101010101010-1010101010101010---------|
A|---8-8-8-8-8-8-8-8--8-8-8-8-8-8-8-8--8-8-8-8-8-8-8-8--8-8-8-8-8-8-8-8----------|
D|-------------------------------------------------------------------------------|

e|-------------------------------------------------------------------------------|
B|-------------------------------------------------------------------------------|
G|---7-7-7-7-7-7-7-7--7-7-7-7-7-7-7-7--5-5-5-5-5-5-5-5--5-5-5-5-5-5-5-5----------|
D|---7-7-7-7-7-7-7-7--7-7-7-7-7-7-7-7--5-5-5-5-5-5-5-5--5-5-5-5-5-5-5-5----------|
A|---5-5-5-5-5-5-5-5--5-5-5-5-5-5-5-5--3-3-3-3-3-3-3-3--3-3-3-3-3-3-3-3----------|
D|---0-0-0-0-0-0-0-0--0-0-0-0-0-0-0-0--------------------------------------------|

e|-------------------------------------------------------------------------------|
B|-------------------------------------------------------------------------------|
G|---1010101010101010-1010101010101010-1010101010101010-1010101010101010---------|
D|---1010101010101010-1010101010101010-1010101010101010-1010101010101010---------|
A|---8-8-8-8-8-8-8-8--8-8-8-8-8-8-8-8--8-8-8-8-8-8-8-8--8-8-8-8-8-8-8-8----------|
D|-------------------------------------------------------------------------------|

e|--------|
B|--------|
G|---7~---|
D|---7~---|
A|---5~---|
D|--------|



(Guitar 2)

e|-------------------------------------------------------------------------------|
B|-------------------------------------------------------------------------------|
G|---1010101010101010/1717171717171717\1414141414141414\1212121212121212---------|
D|-------------------------------------------------------------------------------|
A|---8-8-8-8-8-8-8-8-/1515151515151515\1212121212121212\1010101010101010---------|
D|-------------------------------------------------------------------------------|

e|-------------------------------------------------------------------------------|
B|-------------------------------------------------------------------------------|
G|---\10101010101010101010101010101010\9-9-9-9-9-9-9-9-9-9-9-9-9-9-9-9-----------|
D|-------------------------------------------------------------------------------|
A|---\8-8-8-8-8-8-8-8-8-8-8-8-8-8-8-8-\7-7-7-7-7-7-7-7-7-7-7-7-7-7-7-7-----------|
D|-------------------------------------------------------------------------------|

e|-------------------------------------------------------------------------------|
B|-------------------------------------------------------------------------------|
G|---1010101010101010/1717171717171717\1414141414141414\1212121212121212---------|
D|-------------------------------------------------------------------------------|
A|---8-8-8-8-8-8-8-8-/1515151515151515\1212121212121212\1010101010101010---------|
D|-------------------------------------------------------------------------------|

e|--------|
B|--------|
G|---7~---|
D|--------|
A|---5~---|
D|--------|



(Guitar 3)

e|-------------------------------------------------------------------------------|
B|-------------------------------------------------------------------------------|
G|---1010101010101010/1212121212121212\1010101010101010\9-9-9-9-9-9-9-9----------|
D|-------------------------------------------------------------------------------|
A|---8-8-8-8-8-8-8-8-/1010101010101010\8-8-8-8-8-8-8-8-\7-7-7-7-7-7-7-7----------|
D|-------------------------------------------------------------------------------|

e|-------------------------------------------------------------------------------|
B|-------------------------------------------------------------------------------|
G|---\7-7-7-7-7-7-7-7-7-7-7-7-7-7-7-7-\9-9-9-9-9-9-9-9-9-9-9-9-9-9-9-9-----------|
D|-------------------------------------------------------------------------------|
A|---\5-5-5-5-5-5-5-5-5-5-5-5-5-5-5-5-\7-7-7-7-7-7-7-7-7-7-7-7-7-7-7-7-----------|
D|-------------------------------------------------------------------------------|

e|-------------------------------------------------------------------------------|
B|-------------------------------------------------------------------------------|
G|---1010101010101010/1212121212121212\1010101010101010\9-9-9-9-9-9-9-9----------|
D|-------------------------------------------------------------------------------|
A|---8-8-8-8-8-8-8-8-/1010101010101010\8-8-8-8-8-8-8-8-\7-7-7-7-7-7-7-7----------|
D|-------------------------------------------------------------------------------|

e|-------------------------------------------------------------------------------|
B|-------------------------------------------------------------------------------|
G|---7~-------------------------------/9~----------------------------------------|
D|-------------------------------------------------------------------------------|
A|---5~-------------------------------/7~----------------------------------------|
D|-------------------------------------------------------------------------------|


Bridge:

e|-------------------------------------------------------------------------------------------------|
B|-------------------------------------------------------------------------------------------------|
G|--17-17-17-17-17-17-17-17---15-15-15-15-15-15-15---14-14-14-14-14-14-14---12-12-12-12-12-10-10---|
D|-------------------------------------------------------------------------------------------------|
A|--15-15-15-15-15-15-15-15---13-13-13-13-13-13-13---12-12-12-12-12-12-12---10-10-10-10-10-8--8----|
D|-------------------------------------------------------------------------------------------------|

e|-------------------------------------------------------------------------------------------------|
B|-------------------------------------------------------------------------------------------------|
G|-/14-14-14-14-14-14-14-14\12-12-12-12-12-12-12-12\9-9-9-9-9-9-9-9/10-10-10-10/12-12-12-12--------|
D|-------------------------------------------------------------------------------------------------|
A|-/12-12-12-12-12-12-12-12\10-10-10-10-10-10-10-10\7-7-7-7-7-7-7-7/8--8--8--8-/10-10-10-10--------|
D|-------------------------------------------------------------------------------------------------|

e|-------------------------------------------------------------------------------------------------|
B|-------------------------------------------------------------------------------------------------|
G|--17-17-17-17-17-17-17-17---15-15-15-15-15-15-15---14-14-14-14-14-14-14---12-12-12-12-12-10-10---|
D|-------------------------------------------------------------------------------------------------|
A|--15-15-15-15-15-15-15-15---13-13-13-13-13-13-13---12-12-12-12-12-12-12---10-10-10-10-10-8--8----|
D|-------------------------------------------------------------------------------------------------|

e|-------------------------------------------------------------------------------------------------|
B|-------------------------------------------------------------------------------------------------|
G|-/14---14---14-14-14-14~---12-12-12-12-12-12-12---17---17----17-17-17-17~---17-17-17-17-17-17-17-|
D|-------------------------------------------------------------------------------------------------|
A|-/12---12---12-12-12-12~---10-10-10-10-10-10-10---15---15----15-15-15-15~---15-15-15-15-15-15-15-|
D|-------------------------------------------------------------------------------------------------|


The last chorus is the same as all the others, but repeats 4 times instead of 2.


Ending Chord:

e|---------12~-------|
B|--------10~--------|
G|-------11~---------|
D|------12~----------|
A|-------------------|
D|-------------------|
Suggest correction
Creating personal tab
Creating personal tab
You can edit any tab online and save it as your Personal.

You can edit, replace or remove any tab part or add personal notes – all changes will be seen only by you.

Personal tabs can be accessed anytime from any device, even offline.
Learn more »
Give kudos to tab author, rate the tab!
1 2 3 4 5
comments
print report bad tab
guest
You may want to rate the tab now too:
select rating
Wanna post a correction for this tab? Suggest correction