Oops, an error
Loading. Please wait.

No Fear Of Falling Tab

version 2
version 2

Whole song

1,350 views 1 this week
no commentswrite comment
1 2 3 4 5
2 more votes to show rating
add to favorites
launch autoscroll
font size
0
reset
how to read this tab
guitar tuner
Autoscroll
slow
fast
+/-
esc
set tempo
stop
Help us to improve Ultimate-Guitar.com Take our survey!
×
Author
Difficulty
Capo
novice
1st fret
Saw tabs for this around the place. They had a few mistakes on them (and mine are far 
from perfect) thought I'd show my own attempt:

Capo 1st fret

e|-----------------------------------|----------------------------------------|
B|--------1---1---1---1---1------1---|--------1---1---1---1---1---------------|
G|----0-2---0-----0---0---0------0---|----0-2---0-----0---0---0---------0-----|
D|-2h3--3---3---2---0---------2--2---|-2h3--3---3---2---0--------2----0---0---|
A|----------------------3------3-----|----------------------3-----3-2---------|
E|-----------------------------------|----------------------------------------|

e|---------------------------------------------|
B|-0h1-----1---1---1---1---------1-----------1-|
G|-0---0---0---0---0---0--0------0---0-------0-|
D|-------------------------------------------2-|
A|-0---------------------------------------3---|
E|-------3---1---0---1------1--3--------3------|

The bulk of the song is just this repeated. There are some slight variations throughout 
the song but it should be clear which part to play when. If I have any further 
improvements, I'll try to add them later.
Suggest correction
Give kudos to tab author, rate the tab!
1 2 3 4 5
comments
print report bad tab
guest
You may want to rate the tab now too:
select rating
Wanna post a correction for this tab? Suggest correction