Oops, an error
Loading. Please wait.

Proof Tab

33,638 views 24 this week
4 commentsread comments
1 2 3 4 5
x 10
add to favorites
launch autoscroll
font size
0
reset
how to read this tab
guitar tuner
×
Best way to learn
"Proof"
Autoscroll
slow
fast
+/-
esc
set tempo
stop
Difficulty
Tuning
Capo
intermediate
E A D G B E
4th fret
Song: PROOF
Artist: I am Kloot

by Bruno Mucciolo 

(05.04.2007)

____________
TABLATURE: 
____________

CAPO: 4th 


     C                        Bm7/11                   Am                    G

e|-------0------------------------------------------------0-----------------------3--------------|
B|-----------1----1---------------3--------3----0h3p0-----3p1--------3-1------------3-----3--3---|
G|---0-0------0----0----------2-2----2-------2---------2--2--------0------------0-----0---2--4---|repeat
D|---2----------------0h2p0---0--------0---------------2--2----0h2-------2---0-------------------|
A|---3----------3-------------2----------2-------------0--0------------------2----------2--------|
E|---------------------------------------------------------------------------3----------3--------|


PS: Hold on Am at:

     C                        Bm7/11                   Am                                   C
(  Hey, heard ya read another book, should I take another look What am I....         Without you)
e|-------0------------------------------------------------0-------0------------0------------0-----|
B|-----------1----1---------------3--------3----0h3p0-----3p1-------1------------1----------1-----|
G|---0-0------0----0----------2-2----2-------2---------2--2-----------2------------2--------0-----|
D|---2----------------0h2p0---0--------0---------------2--2----0h2---------0h2--------------2-----|
A|---3----------3-------------2----------2-------------0--0-------------0------------0------3-----|
E|------------------------------------------------------------------------------------------------|


_________
CHORDS:
_________

C =     x32010   ---
Bm7/11= x20230   ---  Capo: 4th
Am =    x02210   ---
G =     320033   ---


INTRO: C   Bm7/11  Am  G

C                           Bm7/11
Hey, could ya stand another drink?
                        Am                       
I'm better when I don't think
                   G                          
It seems to get me through

C                             Bm7/11
Well, d'ya wanna spin another lie?
                   Am
Like we had a good time
                G
Not that I need Proof


C                       Bm7/11
Swell, we're livin in a hotel
                     Am
Someone's ringing my bell
                    G
In a room without a view

C                          Bm7/11
Hey, heard ya read another book
                     Am...
Should I take another look
...                   C
what am I... without you?

(repeat)
Suggest correction
comments
print report bad tab
4 comments total. Showing first comments.
0 reply
OliverWashburn 10 Dec 12, 2007 02:59 AM

I think it could be Am7 instead of Am but anyway good job! Definately better than the 2 stars some idiot gave you.

0 reply
Philo-HH 10 Mar 29, 2010 07:55 AM

I think, the high E-string is turned down to d

0 reply
settingsun123 10 Jul 14, 2012 06:38 AM

Pretty much spot on I think but the Bm7/11 doesn't sound right to me.

I don't think the E string is tuned to D either as it doesn't sound right with the capo and makes playing the G chord difficult.

guest
You may want to rate the tab now too:
select rating
Wanna post a correction for this tab? Suggest correction