Oops, an error
Loading. Please wait.

Storm Warning Bass Tab

1,124 views 3 this week
no commentswrite comment
1 2 3 4 5
3 more votes to show rating
add to favorites
launch autoscroll
font size
0
reset
guitar tuner
×
Best way to learn
"Storm Warning"
Autoscroll
slow
fast
+/-
esc
set tempo
stop
Author
Difficulty
Song: Storm Warning
Artist: I Am Kloot
Album: Natural History
Tabbed by: Torsional

This tab is bare bones, as the bassist adds some notes and slides here and there,
but they're definitely the basics. It sounds like he plays chords in the chorus so to
spice things up you could add a note like this Am:5x7xxx.



STORM WARNING
by I Am Kloot

Guitar intro

G|-------------|-------------|
D|-------------|-------------|
A|-------------|-------------|
E|-------------|-------------|

G|-------------|-------------|
D|-------------|-------------|
A|-------------|-------------|
E|-------------|---------17/-|

Verse 

G|-------------|-------------|
D|-------------|-------------|
A|---3---------|---3---------|
E|5-----1--0-1-|5-----1--0-1-|

G|-------------|-------------|
D|-------------|-------------|
A|---3---------|---3---------|
E|5-----1--0-1-|5-----1--0-1-|

Chorus 

G|-------------|-------------|
D|-------------|-------------|
A|---3--88-77--|---3--88-77--|
E|5------------|5------------|

G|-------------|-------------|
D|-------------|-------------|
A|---3--88-77--|---3--8~-----|
E|5------------|5------------|

Post-Chorus 

G|-------------|---------------------|
D|-------------|---------------------|
A|---3---------|---3-8-7-3-0---------|
E|5-----1--0-1-|5------------3-1-0-5-|

Suggest correction
Give kudos to tab author, rate the tab!
1 2 3 4 5
comments
print report bad tab
guest
You may want to rate the tab now too:
select rating
Wanna post a correction for this tab? Suggest correction