Oops, an error
Loading. Please wait.

On Trees And Birds Chords

6,746 views 27 this week
1 commentread comment
1 2 3 4 5
excellent!
x 4
add to favorites
launch autoscroll
font size
0
reset
transpose
0
reset
display chords
guitar tuner
Tab Pro tools
  • play this tab
  • loop segment
  • change instrument
  • show fretboard
  • metronome
×
Best way to learn
"On Trees And Birds"
Autoscroll
slow
fast
+/-
esc
set tempo
stop
Contributor
Difficulty
Capo
novice
4th fret
Capo on the 4th Fret

Only the start goes like this:

     Am                C              G
e|---------------------------------------------------------|
B|---------1-----1---------1-------------------------------|
G|-------2---2-------------0-----------0-------------------|
D|-----2-------2--------2-----2--------0-------------------|
A|---0----------------3--------------2---2-----------------|
E|---------------------------------3-----------------------|


Am     C      G
trees, oh trees
Am     C       G
do you remember me?

Am     C      G
trees, oh trees
Am     C       G
do you remember me?

Am    C   G
from before

Am        C      G
and birds, oh birds
Am        C       G
can you recall my songs?

Am  C  G
from before

Am     C  G
fire, oh fire
Am     C   G
i can still feel your warmth

Am  C  G
like before
comments
print report bad tab
1 comment total.
0 reply
astomberg wrote on June 2 2015, 10:25 am

This sounded more correct to me



Standard tuning (capo 3)

e|---------------------------|
B|------1-----1-----1-----1--|
G|---------2----0h2----2-----| 2x
D|---------------------2-----|
A|---0----------0------------|
E|---------------------------|
Am C G
e|-----------------------------------------------------|
B|------1-----1-----1-----1-----1-----1-------0-----0--|
G|---------2----0h2----2-----------0-----0h2-----0-----|
D|---------------------2-------------------------------|
A|---0----------0------------3-------------------------|
E|-----------------------------------------------------|
h = hammer on

I want to post or [tab]
guest
You may want to rate the tab now too:
select rating
Please do not post tabs as comments. Select "correction" instead!