Oops, an error
Loading. Please wait.

Some Glad Morning Bass Tab

1,086 views 1 this week
no commentswrite comment
1 2 3 4 5
3 more votes to show rating
add to favorites
launch autoscroll
font size
0
reset
guitar tuner
Autoscroll
slow
fast
+/-
esc
set tempo
stop
Help us to improve Ultimate-Guitar.com Take our survey!
×
Author
Difficulty
Tuning
intermediate
D A D G B E
-------------------------------------------------------------------------------
			     SOME GLAD MORNING - I Am Terrified
-------------------------------------------------------------------------------

Tabbed By : mike_biro727
e-mail: gatorboy727@yahoo.com
Tuning: Drop D
Artist: I Am Terrified http://www.myspace.com/iamterrified
*They play in Drop C, but this song works just fine in Drop D.


Intro - 0:01 "Whappah!"
G|---------------------------------------------------------------|
D|---------------------------------------------------------------|
A|-----0-7-5-3--2~-3-2h3p2-0-2-0--------0-7-5-3--2~--7-7---------|
D|-2-3----------------------------6-2-3------------------6-6-7-7-|

G|---------------------------------------------------------------|
D|---------------------------------------------------------------|
A|-----0-7-5-3--2~-3-2h3p2-0-2-0--------0-7-5-3--2~-xx7~-xx------|
D|-2-3----------------------------6-2-3--------------------6~~~--|

Verse - 0:18 "We're gonna stack 'em ten high..."
G|--------------------------------------------------------|
D|--------------------------------------------------------|
A|-----------------------------/7~--5-7-5-3--------/3~~---|
D|-7-7-7\~----7-7-7\~---7-7-7---------------7-7-7---------|

G|--------------------------------------------------|
D|--------------------------------------------------|
A|--------/7~-0-3-5-3-2-----------------------------|
D|-7-7-7-----------------7-7-5-7--7\0-0-------------|

Prechorus - 0:39 "My God is standing at the door."
G|--------------------------------------------------|
D|--------------------------------------------------|
A|--------------------------------------------------|
D|-7--7--7-7~\----3--3--3-3~--0~-2~-7--7--7-7~\-----|

G|------------------------------------------------------------------------------|
D|------------------------------------------------------------------------------|
A|------------------------------------------------------------------------------|
D|-/7--7--7-7--0--0--0-0--5--5--5-5--2--2--2-2--2--2--2-2--2--2--2-2--2-2-2-2-2-|

Chorus - 1:05 "I know you're gonna find a way..."
G|--------------------------------------------------------------------|
D|--------------------------------------------------------------------|
A|-333333333333-------------------------------------------------------|
D|--------------0~-77777777-000-22~-333333333333-0~-55555555-66666666-|

G|----------------------------------------------------------------------------|
D|----------------------------------------------------------------------------|
A|-333333333333---------------------------------------------------------------|
D|--------------00~-77777777-000-22~-333333333333-00~-5-5-5-55555-6-6-6-66666-|

G|---------------------|
D|---------------------|
A|---------------------|
D|-7-7-7~\\----0000000-|

Intro - 1:37 "Yeah!"
G|---------------------------------------------------------------|
D|---------------------------------------------------------------|
A|-----0-7-5-3--2~-3-2h3p2-0-2-0--------0-7-5-3--2~--7-7---------|
D|-2-3----------------------------6-2-3------------------6-6-7-7-|

G|----------------------------------------------|
D|----------------------------------------------|
A|-----0-7-5-3--2~-3-2h3p2-0-2-0--------0-7-5-3-|
D|-2-3----------------------------6-2-3---------|

Verse 2 - 1:49 "My God is standing at the door..."
G|-----------------------------------------------------|
D|-----------------------------------------------------|
A|-2~~~---2~~~---2~~~---2~-2-2~-2-2~~-2~-2-2~-2-2~~~---|
D|-----------------------------------------------------|

Bridge - 2:27 " I have faith."
G|---------------------------------|
D|---------------------------------|
A|---------------------------------|
D|-/7~~----/7~~----/3~~----/3~~----|

G|---------------------------------------------------|
D|---------------------------------------------------|
A|---------------------------------------------------|
D|-/77777-77777-77777-77777-33333-33333-33333-33333/-|

G|--------------------------------------------------------|
D|--------------------------------------------------------|
A|--------------------------------------------------------|
D|-77777-77777-77777-77777777~\33333-33333-33333-33~33~3/-|

G|-------------------------------------------------------------------|
D|-------------------------------------------------------------------|
A|-------------------------------------------------------------------|
D|-77777777777777777777777777777777-33333333333333333333333333333333-|

3:24
G|-----------------------------------------------------|
D|-----------------------------------------------------|
A|-----------------------------------------------------|
D|-77777777777777777777777777777777-33-33----33-33-33--|

G|-----------------------------------------------------|
D|-----------------------------------------------------|
A|-----------------------------------------------------|
D|-77777777777777777777777777777777-33-33----33-33-33--|

G|-------------------------------------------------------------------|
D|-------------------------------------------------------------------|
A|-------------------------------------------------------------------|
D|-77777777777777777777777777777777-33333333333333333333333333333333-|


"I'll fly away, oh Glory, I'll fly away."


So there you have it. Comments and corrections are requested and enjoy. God bless.


| /  slide up
| \  slide down
| h  hammer-on
| p  pull-off
| ~  sustain
| +  harmonic
| x  Mute note
===============================================================================
Suggest correction
Give kudos to tab author, rate the tab!
1 2 3 4 5
comments
print report bad tab
guest
You may want to rate the tab now too:
select rating
Wanna post a correction for this tab? Suggest correction