Oops, an error
Loading. Please wait.

Murderous Tab

1,085 views 1 this week
no commentswrite comment
1 2 3 4 5
3 more votes to show rating
add to favorites
launch autoscroll
font size
0
reset
how to read this tab
guitar tuner
Autoscroll
slow
fast
+/-
esc
set tempo
stop
Help us to improve Ultimate-Guitar.com Take our survey!
×
Muderous by I am the Avalanche

Intro/Verse

E|-----2-2---2---4---4---2-2---2---4---4---2---4---2---2-|
B|-----2-2---2---4---4---2-2---2---4---4---2---4---2---2-|
G|-----3-3---2---6---6---3-3---3---6---6---4---5---3---3-|
D|-----4-4---4---6---6---4-4---4---6---6---4---6---4---4-|
A|-----4-4---4---4---4---4-4---4---4---4---2---6---4---4-|
E|-----2-2---2-----------2-2---2---------------4---2---2-|

Then just bass plays until “my cold dead hands….”
And guitar plays:

E|--2---2-2---2---2-2---4---4-4---4-4---4---2---2-2---2---2-2---2-|
B|--2---2-2---2---2-2---4---4-4---4-4---4---2---2-2---2---2-2---2-|
G|--4---4-4---4---4-4---5---5-5---5-5---5---3---3-3---3---3-3---3-|
D|--4---4-4---4---4-4---6---6-6---6-6---6---4---4-4---4---4-4---4-|
A|--2---2-2---2---2-2---6---6-6---6-6---6---4---4-4---4---4-4---4-|
E|----------------------4---4-4---4-4---4---2---2-2---2---2-2---2-|

Then just bass plays until “I’m still doing here….”
And guitar plays:

E|--2---2-2---2---2-2---4---4-4---4-4---4---2---2-2---2---2-2---2-|
B|--2---2-2---2---2-2---4---4-4---4-4---4---2---2-2---2---2-2---2-|
G|--4---4-4---4---4-4---5---5-5---5-5---5---3---3-3---3---3-3---3-|
D|--4---4-4---4---4-4---6---6-6---6-6---6---4---4-4---4---4-4---4-|
A|--2---2-2---2---2-2---6---6-6---6-6---6---4---4-4---4---4-4---4-|
E|----------------------4---4-4---4-4---4---2---2-2---2---2-2---2-|

Bridge

“But I’m just killing time…”
E|--4--2--4--2--4--2--4-4-4-4-4-4-4-4-4-4-4-4-4-4-4-4-|
B|--4--2--4--2--4--2--4-4-4-4-4-4-4-4-4-4-4-4-4-4-4-4-|
G|--5--4--5--4--5--4--6-6-6-6-6-6-6-6-6-6-6-6-6-6-6-6-|
D|--6--4--6--4--6--4--6-6-6-6-6-6-6-6-6-6-6-6-6-6-6-6-|
A|--6--2--6--2--6--2--4-4-4-4-4-4-4-4-4-4-4-4-4-4-4-4-|
E|--4-----4-----4-------------------------------------|

“Get down…”
E|-----2--2--2-2-2-2---4--4--4-4-4-4---2--2--2-2-2-2---4--4--4-4-4-4-|
B|-----4--4--4-4-4-4---4--4--4-4-4-4---2--2--2-2-2-2---4--4--4-4-4-4-|
G|-----4--4--4-4-4-4---5--5--5-5-5-5---3--3--3-3-3-3---5--5--5-5-5-5-|
D|-----2--2--2-2-2-2---6--6--6-6-6-6---4--4--4-4-4-4---6--6--6-6-6-6-|
A|-----2--2--2-2-2-2---6--6--6-6-6-6---4--4--4-4-4-4---6--6--6-6-6-6-|
E|---------------------4--4--4-4-4-4---2--2--2-2-2-2---4--4--4-4-4-4-|
E|--2--2--2-2-2-2--4--4--4-4-4-4---6--6--6-6-6-6---4--4--4-4-4-4-----|
B|--4--4--4-4-4-4--4--4--4-4-4-4---6--6--6-6-6-6---4--4--4-4-4-4-----|
G|--4--4--4-4-4-4--5--5--5-5-5-5---8--8--8-8-8-8---6--6--6-6-6-6-----|
D|--2--2--2-2-2-2--6--6--6-6-6-6---8--8--8-8-8-8---6--6--6-6-6-6-----|
A|--2--2--2-2-2-2--6--6--6-6-6-6---6--6--6-6-6-6---4--4--4-4-4-4-----|
E|-----------------4--4--4-4-4-4-------------------------------------|

Chorus

“You’re so murderous….”

E|--4-4--4-4-4---4-4-4--4-4-4--2-2--2-2-2--2-2-|
B|--4-4--4-4-4---4-4-4--4-4-4--2-2--2-2-2--2-2-|
G|--5-5--5-5-5---5-5-5--5-5-5--4-4--4-4-4--4-4-|
D|--6-6--6-6-6---6-6-6--6-6-6--4-4--4-4-4--4-4-|
A|--6-6--6-6-6---6-6-6--6-6-6--2-2--2-2-2--2-2-|
E|--4-4--4-4-4---4-4-4--4-4-4------------------|

Verse 2

Then just bass plays until “The sound seems like its way closer now….”
And guitar plays:

E|--2---2-2---2---2-2---4---4-4---4-4---4---2---2-2---2---2-2---2-|
B|--2---2-2---2---2-2---4---4-4---4-4---4---2---2-2---2---2-2---2-|
G|--4---4-4---4---4-4---5---5-5---5-5---5---3---3-3---3---3-3---3-|
D|--4---4-4---4---4-4---6---6-6---6-6---6---4---4-4---4---4-4---4-|
A|--2---2-2---2---2-2---6---6-6---6-6---6---4---4-4---4---4-4---4-|
E|----------------------4---4-4---4-4---4---2---2-2---2---2-2---2-|

“High up, on a cloud”

E|-----2-2---2---4---4---2-2---2---4---4--|
B|-----2-2---2---4---4---2-2---2---4---4--|
G|-----3-3---2---6---6---3-3---3---6---6--|
D|-----4-4---4---6---6---4-4---4---6---6--|
A|-----4-4---4---4---4---4-4---4---4---4--|
E|-----2-2---2-----------2-2---2----------|

E|--2---2-2---2---2-2---4---4-4---4-4---4---2---2-2---2---2-2---2-|
B|--2---2-2---2---2-2---4---4-4---4-4---4---2---2-2---2---2-2---2-|
G|--4---4-4---4---4-4---5---5-5---5-5---5---3---3-3---3---3-3---3-|
D|--4---4-4---4---4-4---6---6-6---6-6---6---4---4-4---4---4-4---4-|
A|--2---2-2---2---2-2---6---6-6---6-6---6---4---4-4---4---4-4---4-|
E|----------------------4---4-4---4-4---4---2---2-2---2---2-2---2-|
Bridge

“But I’m just killing time…”
E|--4--2--4--2--4--2--4-4-4-4-4-4-4-4-4-4-4-4-4-4-4-4-|
B|--4--2--4--2--4--2--4-4-4-4-4-4-4-4-4-4-4-4-4-4-4-4-|
G|--5--4--5--4--5--4--6-6-6-6-6-6-6-6-6-6-6-6-6-6-6-6-|
D|--6--4--6--4--6--4--6-6-6-6-6-6-6-6-6-6-6-6-6-6-6-6-|
A|--6--2--6--2--6--2--4-4-4-4-4-4-4-4-4-4-4-4-4-4-4-4-|
E|--4-----4-----4-------------------------------------|

“Get down…”
E|-----2--2--2-2-2-2---4--4--4-4-4-4---2--2--2-2-2-2---4--4--4-4-4-4-|
B|-----4--4--4-4-4-4---4--4--4-4-4-4---2--2--2-2-2-2---4--4--4-4-4-4-|
G|-----4--4--4-4-4-4---5--5--5-5-5-5---3--3--3-3-3-3---5--5--5-5-5-5-|
D|-----2--2--2-2-2-2---6--6--6-6-6-6---4--4--4-4-4-4---6--6--6-6-6-6-|
A|-----2--2--2-2-2-2---6--6--6-6-6-6---4--4--4-4-4-4---6--6--6-6-6-6-|
E|---------------------4--4--4-4-4-4---2--2--2-2-2-2---4--4--4-4-4-4-|
E|--2--2--2-2-2-2--4--4--4-4-4-4---6--6--6-6-6-6---4--4--4-4-4-4-----|
B|--4--4--4-4-4-4--4--4--4-4-4-4---6--6--6-6-6-6---4--4--4-4-4-4-----|
G|--4--4--4-4-4-4--5--5--5-5-5-5---8--8--8-8-8-8---6--6--6-6-6-6-----|
D|--2--2--2-2-2-2--6--6--6-6-6-6---8--8--8-8-8-8---6--6--6-6-6-6-----|
A|--2--2--2-2-2-2--6--6--6-6-6-6---6--6--6-6-6-6---4--4--4-4-4-4-----|
E|-----------------4--4--4-4-4-4-------------------------------------|

Chorus

“You’re so murderous….”

E|--4-4--4-4-4---4-4-4--4-4-4--2-2--2-2-2--2-2-2--2-2-2-|
B|--4-4--4-4-4---4-4-4--4-4-4--2-2--2-2-2--2-2-2--2-2-2-|
G|--5-5--5-5-5---5-5-5--5-5-5--4-4--4-4-4--4-4-4--4-4-4-|
D|--6-6--6-6-6---6-6-6--6-6-6--4-4--4-4-4--4-4-4--4-4-4-|
A|--6-6--6-6-6---6-6-6--6-6-6--2-2--2-2-2--2-2-2--2-2-2-|
E|--4-4--4-4-4---4-4-4--4-4-4---------------------------|

E|--4-4--4-4-4---4-4-4--4-4-4--2-2--2-2-2--2-2-|
B|--4-4--4-4-4---4-4-4--4-4-4--2-2--2-2-2--2-2-|
G|--5-5--5-5-5---5-5-5--5-5-5--4-4--4-4-4--4-4-|
D|--6-6--6-6-6---6-6-6--6-6-6--4-4--4-4-4--4-4-|
A|--6-6--6-6-6---6-6-6--6-6-6--2-2--2-2-2--2-2-|
E|--4-4--4-4-4---4-4-4--4-4-4------------------|

Breakdown

“What better a way…”

E|--2-2--2-2-2-2-2-2-2-2--4-4-4-4-4-4-4-4--2-2-2-2-2-2-2-2-2-2-2-2-2-2-2-2-|
B|--2-2--2-2-2-2-2-2-2-2--4-4-4-4-4-4-4-4--2-2-2-2-2-2-2-2-2-2-2-2-2-2-2-2-|
G|--3-3--3-3-3-3-3-3-3-3--3-3-3-3-3-3-3-3--4-4-4-4-4-4-4-4-4-4-4-4-4-4-4-4-|
D|--4-4--4-4-4-4-4-4-4-4--2-2-2-2-2-2-2-2--4-4-4-4-4-4-4-4-4-4-4-4-4-4-4-4-|
A|--4-4--4-4-4-4-4-4-4-4--2-2-2-2-2-2-2-2--2-2-2-2-2-2-2-2-2-2-2-2-2-2-2-2-|
E|--2-2--2-2-2-2-2-2-2-2--4-4-4-4-4-4-4-4----------------------------------|
Pm…………………………………………………               …………

E|--2-2--2-2-2-2-2-2-2-2--4-4-4-4-4-4-4-4--2-2-2-2-2-2-2-2-2-2-2-2-2-2-2-2---------------------|
B|--2-2--2-2-2-2-2-2-2-2--4-4-4-4-4-4-4-4--2-2-2-2-2-2-2-2-2-2-2-2-2-2-2-2---------------------|
G|--3-3--3-3-3-3-3-3-3-3--3-3-3-3-3-3-3-3--4-4-4-4-4-4-4-4-4-4-4-4-4-4-4-4---------------------|
D|--4-4--4-4-4-4-4-4-4-4--2-2-2-2-2-2-2-2--4-4-4-4-4-4-4-4-4-4-4-4-4-4-4-4---------------------|
A|--4-4--4-4-4-4-4-4-4-4--2-2-2-2-2-2-2-2--2-2-2-2-2-2-2-2-2-2-2-2-2-2-2-2---------------------|

              ………….


E|--2-2--2-2-2-2-2-2-2-2--4-4-4-4-4-4-4-4--2-2-2-2-2-2-2-2-2-2-2-2-2-2-2-2-|
B|--2-2--2-2-2-2-2-2-2-2--4-4-4-4-4-4-4-4--2-2-2-2-2-2-2-2-2-2-2-2-2-2-2-2-|
G|--3-3--3-3-3-3-3-3-3-3--3-3-3-3-3-3-3-3--4-4-4-4-4-4-4-4-4-4-4-4-4-4-4-4-|
D|--4-4--4-4-4-4-4-4-4-4--2-2-2-2-2-2-2-2--4-4-4-4-4-4-4-4-4-4-4-4-4-4-4-4-|
A|--4-4--4-4-4-4-4-4-4-4--2-2-2-2-2-2-2-2--2-2-2-2-2-2-2-2-2-2-2-2-2-2-2-2-|
E|--2-2--2-2-2-2-2-2-2-2--4-4-4-4-4-4-4-4----------------------------------|Pm……………………


Chorus

“You’re so murderous…”

E|--4-4--4-4-4---4-4-4--4-4-4--2-2--2-2-2--2-2-2--2-2-2-|
B|--4-4--4-4-4---4-4-4--4-4-4--2-2--2-2-2--2-2-2--2-2-2-|
G|--5-5--5-5-5---5-5-5--5-5-5--4-4--4-4-4--4-4-4--4-4-4-|
D|--6-6--6-6-6---6-6-6--6-6-6--4-4--4-4-4--4-4-4--4-4-4-|
A|--6-6--6-6-6---6-6-6--6-6-6--2-2--2-2-2--2-2-2--2-2-2-|
E|--4-4--4-4-4---4-4-4--4-4-4---------------------------|

E|--4-4--4-4-4---4-4-4--4-4-4--2-2--2-2-2--2-2-2--2-2-2-|
B|--4-4--4-4-4---4-4-4--4-4-4--2-2--2-2-2--2-2-2--2-2-2-|
G|--5-5--5-5-5---5-5-5--5-5-5--4-4--4-4-4--4-4-4--4-4-4-|
D|--6-6--6-6-6---6-6-6--6-6-6--4-4--4-4-4--4-4-4--4-4-4-|
A|--6-6--6-6-6---6-6-6--6-6-6--2-2--2-2-2--2-2-2--2-2-2-|
E|--4-4--4-4-4---4-4-4--4-4-4---------------------------|

E|--4-4--4-4-4---4-4-4--4-4-4--2-2--2-2-2--2-2-2--2-2-2-|
B|--4-4--4-4-4---4-4-4--4-4-4--2-2--2-2-2--2-2-2--2-2-2-|
G|--5-5--5-5-5---5-5-5--5-5-5--4-4--4-4-4--4-4-4--4-4-4-|
D|--6-6--6-6-6---6-6-6--6-6-6--4-4--4-4-4--4-4-4--4-4-4-|
A|--6-6--6-6-6---6-6-6--6-6-6--2-2--2-2-2--2-2-2--2-2-2-|
E|--4-4--4-4-4---4-4-4--4-4-4---------------------------|

E|--4-4--4-4-4---4-4-4--4-4-4--2-2--2-2-2--2-2-2--2-2-2-|
B|--4-4--4-4-4---4-4-4--4-4-4--2-2--2-2-2--2-2-2--2-2-2-|
G|--5-5--5-5-5---5-5-5--5-5-5--4-4--4-4-4--4-4-4--4-4-4-|
D|--6-6--6-6-6---6-6-6--6-6-6--4-4--4-4-4--4-4-4--4-4-4-|
A|--6-6--6-6-6---6-6-6--6-6-6--2-2--2-2-2--2-2-2--2-2-2-|
E|--4-4--4-4-4---4-4-4--4-4-4---------------------------|

There ya go. More IATA tabs to come!
myspace.com/iamtheavalanche
Suggest correction
Give kudos to tab author, rate the tab!
1 2 3 4 5
comments
print report bad tab
guest
You may want to rate the tab now too:
select rating
Wanna post a correction for this tab? Suggest correction