Oops, an error
Loading. Please wait.

Stand Together Tab

1,285 views 1 this week
1 commentread comment
1 2 3 4 5
please rate
add to favorites
launch autoscroll
font size
0
reset
how to read this tab
guitar tuner
Autoscroll
slow
fast
+/-
esc
set tempo
stop
Help us to improve Ultimate-Guitar.com Take our survey!
×
Contributor
Difficulty
Tuning
intermediate
C G C F A D
myspace.com/ibuiltthecross

D|--------------------------------------------------------------------------|
A|--------------------------------------------------------------------------|
F|--------------------------------------------------------------------------|
C|--------------------6-------------3-2-1----------------------6------------|
G|-----5-5----5-5-------5------5----3-2-1-3>-----5-5----5-5-------5------5--|
C|-2-2----2-2-----2-2------2-2---00-3-2-1---2-2----2-2-----2-2------2-2-----|


D|--------------------------------------------------------------------------|
A|--------------------------------------------------------------------------|
F|--------------------------------------------------------------------------|
C|---3-2-1------3-2--1-2---3-2-1-2-3-2----------------------4h7p4-----------|
G|---3-2-1-3>----3-2--1-2--3-2-1-2-3-2----------6P3---------------3h6p3-----|
C|00-3-2-1------3-2--1-2---3-2-1-2-3-2--2-1-00-------3-2-00-----------------|

D|--------------------------------------------------------------------------|
A|--------------------------------------------------------------------------|
F|------------------------------5h8p5h8-------------------------------------|
C|----------------------4h6p4h6--------------------------------4h7p4--------|
G|--------6P3---------------------------------------6P3-------------3h6p3---|
C|2-1-00-------3-2-00-----------------------2-1-00-------3-2-00-------------|

D|-----------------------------12h15p12--------------------14h17p14---------|
A|--------------------------13----------13--------------15----------15------|
F|-----------------------12---------------14---------14----------------14---|
C|--------------------14--------------------------16------------------------|
G|--------6P3------15--------------------------17---------------------------|
C|-2-1-00-----2-1-----------------------------------------------------------|


D|--------------------------------------------------------------------------|
A|--------------------------------------------------------------------------|
F|-----------------------------------------------------------------5h8p5h8--|
C|----------------------4h7p4-----------------------------4h6p4h6-----------|
G|----------6P3----------------3h6p3----------6P3---------------------------|
C|-2-1-00-------3-2-00----------------2-1-00-------3-2-00-------------------|

D|---------------------------------12h15p12--------------------14h17p14------|
A|------------------------------13----------13--------------15----------15---|
F|----------------------------12---------------14---------14--------------14-|
C|-------------------------14--------------------------16--------------------|
G|----------6P3---------15--------------------------17-----------------------|
C|-2-1-00-------3-2-00-------------------------------------------------------|

D|----------------14------------------17---------------------------------------|
A|-------------15----15------------18-----18-----------------------------------|
F|----------14---------14--------17---------17---------------------------------|
C|-------16--------------------19----------------0-----------------------------|
G|----17--------------------20-------------------0-------5555-------5555-0-----|
C|-17--------------------------------------------0-12/-1111--------1111------0-|

D|---------------------------------------------------------------------------|
A|---------------------------------------------------------------------------|
F|---------------------------------------------------------------------------|
C|-------------------------3-2-1---------------------------------------------|
G|--------5555-------5555--3-2-1-3>--------5555-------5555-0------5555-------|
C|--1111--------1111-------3-2-1-----1111--------1111------0-1111------1111--|

D|---------------------------------------------------------------------------|
A|---------------------------------------------------------------------------|
F|---------------------------------------------------------------------------|
C|-------------------------3-2-1---------------------------------------------|
G|--------5555-------5555--3-2-1-3>--------5555-------5555-0------5555-------|
C|--1111--------1111-------3-2-1-----1111--------1111------0-1111------1111--|

D|---------------------------------------------------------------------------|
A|---------------------------------------------------------------------------|
F|---------------------------------------------------------------------------|
C|-------------------------3-2-1---------------------------------------------|
G|--------5555-------5555--3-2-1-3>--------5555-------5555-0------5555-------|
C|--1111--------1111-------3-2-1-----1111--------1111------0-1111------1111--|

D|-----------------------------12h15p12--------------------14h17p14--------|
A|--------------------------13----------13--------------15----------15-----|
F|----------------------12---------------14---------14----------------14---|
C|------------------14--------------------------16-------------------------|
G|---5555------15--------------------------17------------------------------|
C|-------------------------------------------------------------------------|


D|--------------------------------------------------------------------------|
A|--------------------------------------------------------------------------|
F|--------------------------------------------------------------------------|
C|--------------------6-------------3-2-1----------------------6------------|
G|-----5-5----5-5-------5------5----3-2-1-3>-----5-5----5-5-------5------5--|
C|-2-2----2-2-----2-2------2-2---00-3-2-1---2-2----2-2-----2-2------2-2-----|

D|--------------------------------------------------------------------------|
A|--------------------------------------------------------------------------|
F|--------------------------------------------------------------------------|
C|----3-2-1-3>---3-2-3-2-3>-----3-2-3-2-3>------3-2-3-2-3>------------------|
G|-00-3-2-1---3>-3-2-3-2---3>---3-2-3-2---3>----3-2-3-2---3>----------------|
C|-00-3-2-1------3-2-3-2-----00-3-2-3-2------00-3-2-3-2---------------------|


D|-----6->------------------------12h15p12-----------------------------------|
A|-------5>--------------------13---------13----------------6/2--------------|
F|---------4>---------------12---------------12---------2/6------------------|
C|-3-2-------3>----------14---------------------14---------------------------|
G|-3-2---------3>-----15---------------------------15------------------------|
C|-3-2-----------------------------------------------------------------------|

D|-----6->------------------------12h15p12------------------------14h17p----|
A|-------5>--------------------13---------13-------------------13--------13-|
F|---------4>---------------12---------------12-------------14--------------|
C|-3-2-------3>----------14---------------------14-------16-----------------|
G|-3-2---------3>-----15----------------------------15-17-------------------|
C|-3-2----------------------------------------------------------------------|

D|-----6->------------------------12h15p12----------------------------------|
A|-------5>--------------------13---------13----------------6/2-------------|
F|---------4>---------------12---------------12---------2/6-----------------|
C|-3-2-------3>----------14---------------------14--------------------------|
G|-3-2---------3>-----15---------------------------15-----------------------|
C|-3-2----------------------------------------------------------------------|

D|-----6->------------------------12h15p12------------------------14h17p----|
A|-------5>--------------------13---------13-------------------13--------13-|
F|---------4>---------------12---------------12-------------14--------------|
C|-3-2-------3>----------14---------------------14-------16-----------------|
G|-3-2---------3>-----15----------------------------15-17-------------------|
C|-3-2----------------------------------------------------------------------|

D|---------------------------------------------------------------------------|
A|---------------------------------------------------------------------------|
F|---------------------------------------------------------------------------|
C|-0~~----------00-3-0-3/5-00-00000000--00-3-0-3/5-00-00-3/5-----------------|
G|-0~~----------00-3-0-3/5-00-00000000--00-3-0-3/5-00-00-3/5-3>--------------|
C|-0~~----------00-3-0-3/5-00-00000000--00-3-0-3/5-00-00-3/5-----------------|

THIS PART JUST FADES FOR THE REST OF THE SONG
D|---------------------------------------------------------------------------|
A|---------------------------------------------------------------------------|
F|---------------------------------------------------------------------------|
C|-00-3-0-3/5-00-00000000--00-3-0-3/5-00-00-3/5------------------------------|
G|-00-3-0-3/5-00-00000000--00-3-0-3/5-00-00-3/5-3>---------------------------|
C|-00-3-0-3/5-00-00000000--00-3-0-3/5-00-00-3/5------------------------------|
Suggest correction new What's this?
You can suggest a correction to this tab. Community and Mods will review your correction and vote to approve or reject it.
comments
We did not receive enough feedback on this tab! Please rate:
print report bad tab
1 2 3 4 5
1 comment total.
0 reply
Leonio-man 62 wrote on April 16 2010, 06:28 am

wow, nice tab, but im still wondering how you heard all this. its impossible for me

guest
You may want to rate the tab now too:
select rating
Please do not post tabs as comments. Select "correction" instead!