Oops, an error
Loading. Please wait.

Lions Tab

version 1
version 1

Whole song

1,415 views 1 this week
no commentswrite comment
1 2 3 4 5
1 last vote to show rating
add to favorites
launch autoscroll
font size
0
reset
how to read this tab
guitar tuner
Autoscroll
slow
fast
+/-
esc
set tempo
stop
Help us to improve Ultimate-Guitar.com Take our survey!
×
Author
Difficulty
intermediate
Band: Ace Enders
Song: Lions
Album: Share With Everyone
http://icanmakeamess.bandcamp.com/album/share-with-everyone
Email: tehrevisionist@gmail.com

Tuning is:
e
C
G
D
A
E
(B string up 1/2 step)

Capo on 6
(Figure out the rhythm yourself, But here is what he is picking)
e|--------------------------|
C|---0---0---0---0---0---0--|
G|---0---0---0---0---0---0--|
D|---5---3-------0---2---3--|
A|-----------3--------------|
E|--------------------------|

Chorus
e|---0---0---|
C|---0---0---|
G|---0---0---|
D|---3---2---|
A|---3---3---|
E|---1---0---|


Interlude thing
e|----------------------|
C|---0--0--0--0--0--0---|
G|---0--2--4--5--7--9---|
D|---2--3--5--7--9--10--|
A|----------------------|
E|----------------------|

Like the first part
e|---------------------------|
C|---0---0---0---0---0---0---|
G|---4---2---0---0---0---2---|
D|---5---3---2---3---2---3---|
A|-----------3---5-----------|
E|---------------------------|

Play the chorus again

Then play the interlude thing again







[Intro]
If the sky goes grey and water falls 
if I get washed away when the tide goes
if breath becomes a task and punishment
i remember all the things I understand


[Chorus]
you had it all

If i could spark like a fire
but be as calming as matches
then i would rule like a lion
and just go off like a cannon
I could kill like a tiger
and push away all the feeling
but I wont run like a coward
or go away with the season
if i could shine like a diamond
but live alone on the streets
Id be my best as a lover 
and be as cool as a theif could be

you had it all

[Interlude thing]

[Like the intro]
if the sky becomes all smoke and fire burns
before my lungs give up I take it in
the breath becomes like tax and punishment
i try to say the things worth holding in

[Chorus]
you had it all

If i could spark like a fire
but be as calming as matches
then i would rule like a lion
and just go off like a cannon
I could kill like a tiger
and push away all the feeling
but I wont run like a coward
or go away with the season
if i could shine like a diamond
but live alone on the streets
Id be my best as a lover 
and be as cool as a theif could be

you had it all (x3)

You had to go from somewhere to be here 

[Interlude thing]
Now Im back, on this gold
Suggest correction
Give kudos to tab author, rate the tab!
1 2 3 4 5
comments
print report bad tab
guest
You may want to rate the tab now too:
select rating
Wanna post a correction for this tab? Suggest correction