Oops, an error
Loading. Please wait.

Hipsteria Bass Tab

650 views 1 this week
no commentswrite comment
1 2 3 4 5
please rate
add to favorites
launch autoscroll
font size
0
reset
guitar tuner
Autoscroll
slow
fast
+/-
esc
set tempo
stop
Help us to improve Ultimate-Guitar.com Take our survey!
×
Author
Difficulty
novice
I Cani - Hipsteria


Intro - Verse

G|-----------------------------------| x 12
D|-----------------------------------|
A|--4--4--4---------8--8--8-9--9--9--|
E|----------6--6--6------------------|


Chorus

G|--------------------------------------| x 2
D|----------8--8--8-9--9--9-11--11--11--|
A|--6--6--6-----------------------------|
E|--------------------------------------|

G|-----------------------------------|
D|-----------------------------------|
A|--6--6--6-6--6--6-9--9--9-9--9--9--|
E|-----------------------------------|


Verse x 8

Chorus

Bridge

G|-------------|
D|-------------|
A|-------------|
E|--2----------|

G|-------------------| x 9
D|-------------------|
A|--6-6-6-6----------|
E|----------7-7-7-7--|

G|------------------------------------|
D|------------------------------------|
A|--9-9-9-9----------9-9-9-9----------|
E|----------7-7-7-7----------9-9-9-9--|

Chorus

Verse x 4
Suggest correction
Give kudos to tab author, rate the tab!
1 2 3 4 5
comments
print report bad tab
guest
You may want to rate the tab now too:
select rating
Please do not post tabs as comments. Select "correction" instead!