Oops, an error
Loading. Please wait.

Perdona E Dimentica Bass Tab

759 views 3 this week
no commentswrite comment
1 2 3 4 5
3 more votes to show rating
add to favorites
launch autoscroll
font size
0
reset
guitar tuner
Autoscroll
slow
fast
+/-
esc
set tempo
stop
Help us to improve Ultimate-Guitar.com Take our survey!
×
Author
Difficulty
novice
I Cani - Perdona e Dimentica

Intro/Verse

G|----------------------------------------------------| x 4
D|---------6----------------3---3-6-5-----------------|
A|-----------4--3--3--3--3------------6--4--4--4-4-3--|
E|--4---4---------------------------------------------|

rest

Verse x 6

Intro x 4

rest

Verse x 6

Bridge

G|--------------------------------------------------6-6-6-6-6-6-6-6--| x 25
D|----------------------------------3-3-3-3-3-3-3-3------------------|
A|------------------3-3-3-3-3-3-3-3----------------------------------|
E|--4-4-4-4-4-4-4-4--------------------------------------------------|

End on:
G|-----------|
D|-----------|
A|-----------|
E|--4--------|
Suggest correction
Give kudos to tab author, rate the tab!
1 2 3 4 5
comments
print report bad tab
guest
You may want to rate the tab now too:
select rating
Wanna post a correction for this tab? Suggest correction