Oops, an error
Loading. Please wait.

Sparire intro tab

by I cani
538 views 1 this week
1 commentread comment
1 2 3 4 5
3 more votes to show rating
add to favorites
×
Save as Personal and add changes to this tab that will be seen only by you. Learn more ›
×
You can save this tab as Personal to edit and correct it or add notes. All changes will be seen only by you. Learn more »
launch autoscroll
font size
0
reset
how to read this tab
guitar tuner
edit
Autoscroll
slow
fast
+/-
esc
set tempo
stop
Author
Difficulty
Guitar1 = what is played with the right hand on electric piano
Guitar2 = what is played with the left hand on electric piano

Guitar1
e||--------------|--------------|--------------|--------------|
B||--------------|--------------|--------------|--------------|
G||--------------|--------------|--------------|--------------|
D||--------------|--------------|--------------|--------------|
A||--------------|--------------|--------------|--------------|
E||--------------|--------------|--------------|--------------|
Guitar2
e||--------------|--------------|--------------|--------------|
B||--------------|--------------|--------------|--------------|
G||--------------|--------------|--------------|--------------|
D||--------2-----|--------2-----|--------2-----|--------2-----|
A||-----2-----2--|-----2-----2--|-----2-----2--|-----2-----2--|
E||--0-----------|--0-----------|--0-----------|--0-----------|


Guitar1
e||--------------|--------------|--------------|--------------|
B||--------------|--------------|--------------|--------0--2--|
G||--------------|--------------|--------------|-----1--------|
D||--------------|--------------|--------------|--------------|
A||--------------|--------------|--------------|--------------|
E||--------------|--------------|--------------|--------------|
Guitar2
e||--------------|--------------|--------------|--------------|
B||--------------|--------------|--------------|--------------|
G||--------------|--------------|--------------|--------------|
D||--------2-----|--------2-----|--------2-----|--------------|
A||-----2-----2--|-----2-----2--|-----2-----2--|--------------|
E||--0-----------|--0-----------|--0-----------|--0-----------|


Guitar1
e||--------------|--------------|--------------|--------------|
B||-----2-----0--|-----0--------|--------------|--------0-----|
G||--------------|-----------1--|-----1--------|-----1-----1--|
D||--------------|--------------|-----------2--|--4-----------|
A||--------------|--------------|--------------|--------------|
E||--------------|--------------|--------------|--------------|
Guitar2
e||--------------|--------------|--------------|--------------|
B||--------------|--------------|--------------|--------------|
G||--------2-----|--------------|--------6-----|--------4-----|
D||-----2-----2--|--------6-----|-----6-----6--|-----4-----4--|
A||--0-----------|-----6-----6--|--4-----------|--2-----------|
E||--------------|--4-----------|--------------|--------------|


Guitar1
e||--------------|--------------|--------------|--------------|
B||--------------|--------0-----|--------------|--------------|
G||--------------|-----------1--|--------------|-----------1--|
D||--------------|--------------|--------------|-----2--4-----|
A||--------------|--------------|--------------|--------------|
E||--------------|--------------|--------------|--------------|
Guitar2
e||--------------|--------------|--------------|--------------|
B||--------------|--------------|--------------|--------------|
G||--------2-----|--------2-----|--------2-----|--------2-----|
D||-----2-----2--|-----2-----2--|-----2-----2--|-----2-----2--|
A||--0-----------|--0-----------|--0-----------|--0-----------|
E||--------------|--------------|--------------|--------------|


Guitar1
e||--------------|--------------|--------------|--------------|
B||--------0-----|--------------|--------------|--------0-----|
G||-----------1--|--------2--1--|-----1--------|-----1-----1--|
D||--------------|--------------|-----------2--|--4-----------|
A||--------------|--------------|--------------|--------------|
E||--------------|--------------|--------------|--------------|
Guitar2
e||--------------|--------------|--------------|--------------|
B||--------------|--------------|--------------|--------------|
G||--------9-----|--------4-----|--------2-----|--------5-----|
D||-----9-----9--|-----4-----4--|-----2-----2--|-----5-----5--|
A||--7-----------|--2-----------|--0-----------|--3-----------|
E||--------------|--------------|--------------|--------------|


Guitar1
e||--------------|--------------|--------------|--------------|
B||--------------|--------------|--------------|--------0--2--|
G||--------------|--------------|--------------|-----1--------|
D||--------------|--------------|--------------|--------------|
A||--------------|--------------|--------------|--------------|
E||--------------|--------------|--------------|--------------|
Guitar2
e||--------------|--------------|--------------|--------------|
B||--------------|--------------|--------------|--------------|
G||--------------|--------------|--------------|--------------|
D||--------2-----|--------2-----|--------2-----|--------2-----|
A||-----2-----2--|-----2-----2--|-----2-----2--|-----2-----2--|
E||--0-----------|--0-----------|--0-----------|--0-----------|

Guitar1
e||--------------|--------------|--------------|--------------|
B||-----2-----0--|-----0--------|--------------|--------0-----|
G||--------------|-----------1--|-----1--------|-----1-----1--|
D||--------------|--------------|-----------2--|--4-----------|
A||--------------|--------------|--------------|--------------|
E||--------------|--------------|--------------|--------------|
Guitar2
e||--------------|--------------|--------------|--------------|
B||--------------|--------------|--------------|--------------|
G||--------2-----|--------------|--------6-----|--------4-----|
D||-----2-----2--|--------6-----|-----6-----6--|-----4-----4--|
A||--0-----------|-----6-----6--|--4-----------|--2-----------|
E||--------------|--4-----------|--------------|--------------|


Guitar1
e||--------------|--------------|--------------|--------------|
B||--------------|--------0-----|--------------|--------------|
G||--------------|-----------1--|--------------|-----------1--|
D||--------------|--------------|--------------|-----2--4-----|
A||--------------|--------------|--------------|--------------|
E||--------------|--------------|--------------|--------------|
Guitar2
e||--------------|--------------|--------------|--------------|
B||--------------|--------------|--------------|--------------|
G||--------2-----|--------2-----|--------2-----|--------2-----|
D||-----2-----2--|-----2-----2--|-----2-----2--|-----2-----2--|
A||--0-----------|--0-----------|--0-----------|--0-----------|
E||--------------|--------------|--------------|--------------|


Guitar1
e||--------------|--------------|--------------|--------------|
B||--------0-----|--------------|--------------|--------0-----|
G||-----------1--|--------2--1--|-----1--------|-----1-----1--|
D||--------------|--------------|-----------2--|--4-----------|
A||--------------|--------------|--------------|--------------|
E||--------------|--------------|--------------|--------------|
Guitar2
e||--------------|--------------|--------------|--------------|
B||--------------|--------------|--------------|--------------|
G||--------9-----|--------4-----|--------2-----|--------5-----|
D||-----9-----9--|-----4-----4--|-----2-----2--|-----5-----5--|
A||--7-----------|--2-----------|--0-----------|--3-----------|
E||--------------|--------------|--------------|--------------|


Guitar1
e||-------------|---------------|--------------|--------------|
B||-------------|---------------|--------------|--------------|
G||-------------|---------------|--------------|--------------|
D||-------------|---------------|--------------|--------------|
A||-------------|---------------|--------------|--------------|
E||-------------|---------------|--------------|--------------|
Guitar2
e||--------------|--------------|--------------|--------------|
B||--------------|--------------|--------------|--------------|
G||--------------|--------------|--------------|--------------|
D||--------2-----|--------2-----|--------2-----|--------2-----|
A||-----2-----2--|-----2-----2--|-----2-----2--|-----2-----2--|
E||--0-----------|--0-----------|--0-----------|--0-----------|
Suggest correction
Creating personal tab
Creating personal tab
You can edit any tab online and save it as your Personal.

You can edit, replace or remove any tab part or add personal notes – all changes will be seen only by you.

Personal tabs can be accessed anytime from any device, even offline.
Learn more »
Give kudos to tab author, rate the tab!
1 2 3 4 5
comments
print report bad tab
1 comment total.
0 reply
wal_guitar91 323 May 04, 2016 05:28 AM

Here I wrote some kind of sheet music for the intro of the song:
https://drive.google.com/file/d/0Bxy9g4eskP8DNi1KWXd5U0hJVFk/view?usp=sharing

guest
You may want to rate the tab now too:
select rating
Wanna post a correction for this tab? Suggest correction