Oops, an error
Loading. Please wait.

Crazie Tab

2,679 views 3 this week
no commentswrite comment
1 2 3 4 5
excellent!
x 4
add to favorites
launch autoscroll
font size
0
reset
how to read this tab
guitar tuner
Tab Pro tools
  • play this tab
  • loop segment
  • change instrument
  • show fretboard
  • metronome
×
Best way to learn
"Crazie"
Autoscroll
slow
fast
+/-
esc
set tempo
stop
Contributor
I Fight Dragons - cRaZie$
Album - KABOOM!
Tabbed By - Niall Hamilton theNiallHamilton@gmail.com

I'm pretty sure that this is how it goes. I'll update when I work other parts out, 
but until then, this should be good enough.

Intro -

      D  A  C# F#  D  A  C#  F#
E||--------------------------------------|
B||--------------------------------------|
G||---7-----6------7-----6---------------|
D||---7--7--6--4---7--7--6--4------------|
A||---5--7--4--4---5--7--4--4------------|
E||------5-----2------5-----2------------|

Verse Part 1- Either play the bass note or palm mute

      D  A  C# F#  D  A  C#  F#
E||--------------------------------------|
B||--------------------------------------|
G||---7-----6------7-----6---------------|
D||---7--7--6--4---7--7--6--4------------|
A||---5--7--4--4---5--7--4--4------------|
E||------5-----2------5-----2------------|

Verse

      D       A       C#       F#  
E||---------------------------------------|
B||---------------------------------------|
G||---------7----------------6------------| Play Twice
D||-------7---------7------6---------4----|
A||---5-5---------7---4-4----------4------|
E||-----------5-5--------------2-2--------|

Pre-Chorus 

      D       A       C#       F#  
E||---------------------------------------------------------|
B||---------------------------------------------------------|
G||-------7--------------6-----------7----------------------| 
D||-----7-7-------7----6-6-----4---7-7-------7-----------4-4|
A||---5---5-----7-7--4---4---4-4-5---5-----7-7-----------4-4|
E||-----------5---5--------2---2---------5---5-----------2-2|

Chorus

      D  A  C# F#  D  A  C#  F#
E||--------------------------------------|
B||--------------------------------------|
G||---7-----6------7-----6---------------|
D||---7--7--6--4---7--7--6--4------------|
A||---5--7--4--4---5--7--4--4------------|
E||------5-----2------5-----2------------|

Breakdown - Not too sure on this

     F#    G G#A         G#G F#      
E||---------------------------------------------------------|
B||---------------------------------------------------------|
G||----------------------------------7-7-7-6-6-6------------| 
D||--4-4-4-5-6-7-7-7-7-7-6-5-4-4-4---7-7-7-6-6-6--7-7-7-----|
A||--4-4-4-5-6-7-7-7-7-7-6-5-4-4-4---5-5-5-4-4-4--7-5-5-----|
E||--2-2-2-3-4-5-5-5-5-5-4-3-2-2-2----------------5-5-5-----|

That's all I've got time for now, I'll update later when I can. Hope this helps!
comments
print report bad tab
I want to post or [tab]
guest
You may want to rate the tab now too:
select rating
Please do not post tabs as comments. Select "correction" instead!