Oops, an error
Loading. Please wait.

Disaster Hearts Tab

5,408 views 15 this week
3 commentsread comments
1 2 3 4 5
accurate
x 4
add to favorites
launch autoscroll
font size
0
reset
how to read this tab
guitar tuner
Tab Pro tools
  • play this tab
  • loop segment
  • change instrument
  • show fretboard
  • metronome
Autoscroll
slow
fast
+/-
esc
set tempo
stop
Contributor
Tabbed by Danny Valenzuela (ninjaboi77@gmail.com) Feedback
I do not own this song or any of I fight Dragons' songs

Note: Sorry if this is bad. This is my first tab.

(Piano led part tab)
Capo 5

e|--------3-----------------3----------------3-------------3------------------|
B|-----3-----3----------3-------3--------3-----3-------3------3---------------|
G|-0---------------5-----------------4--------------2-------------------------|
D|----------------------------------------------------------------------------|
A|----------------------------------------------------------------------------|
E|----------------------------------------------------------------------------|

This pretty much goes on the entire song until the quiet part between the verse and 
chorus which is just this

e|-------3-------|
B|---3-------3---|
G|---------------|

(Chords)

Lyrics taken from IFD Disaster Hearts Official Video

No capo

C         F        C           G
Comeback, rebound; simpler said than found
C         F        C       G
Night by night and tear by tear
C         F        C      G
Somehow, someway, we all get to someday
C         F      C       G       F (Hold)
Mile by mile and fear by fear

Chorus:
Am     F        C       G
Disaster has a way of remaking our hearts
Am     F           C           G
Long after all the thunder and scars
Am     F           C           G        F (Hold)
Days pass and bit by bit we begin to restart
                    Am F C G (x2)
Our Disaster Hearts

Stronger, wiser; you'll be fine they tell you
Life will heal and love will bind
Weaker, slower; keep in mind it's over
Take a breath and take your time

Chorus

F
And we will be the last ones
F
To finally see when we're done

Chorus
comments
print report bad tab
3 comments total.
0 reply
Adamskii wrote on December 4 2011, 08:47 am

Hey, sorry to nit pick on your first tab but it's most common to write capo'd notes relative to the capo, so here it would be

----------3--------
-------3-----3-----
----0--------------

Ect.

Overall though a nice tab :)

0 reply
NicholasSepth wrote on May 10 2012, 06:13 pm

you got only the chorus right. everything else goes pretty much: C F C G

+1 reply
dalelawton wrote on October 11 2014, 02:55 pm

Good job with the chords and you can play the "melody" with the capo, if you want, but it makes it hard to play the rest of the song.

You could also just play the whole thing without a capo. The repeating melody is based on a C chord. Form a C Chord and then the first note is 3rd finger on the A string...

------------------------------------------------------------
--------1--------1--------1--------1------------------------
-----0----0----0---0----0---0----0---0----------------------
-------------3--------2--------0----------------------------
--3---------------------------------------------------------
------------------------------------------------------------

I want to post or [tab]
guest
You may want to rate the tab now too:
select rating
Please do not post tabs as comments. Select "correction" instead!