Oops, an error
Loading. Please wait.

Give It Up Bass Tab

936 views 1 this week
no commentswrite comment
1 2 3 4 5
excellent!
x 5
add to favorites
launch autoscroll
font size
0
reset
guitar tuner
Autoscroll
slow
fast
+/-
esc
set tempo
stop
Help us to improve Ultimate-Guitar.com Take our survey!
×
Author
Difficulty
harirao1 209
intermediate
-------------------------------------------------------------------------------
Give It Up - I Fight Dragons
-------------------------------------------------------------------------------
Tabbed By: Hari Rao
e-mail: harirao1@gmail.com
Tuning: Standard

So I realize the template's a little sloppy but I can tab these much faster if you 
let me get away with it :P

  (Guitar Intro)   
G|---------------------------------------------------------------------------|
D|---------------------------------------------------------------------------|
A|---------------------------------------------------------------------------|
E|---------------------------------------------------------------------------|
                                            
G|---------------------------------------------------------------------------|
D|---------------------------------------------------------------------------|
A|-1/13-13-13-13-13-13-13-13-13-13-13-13-13-13-13-13-13-13-13-13-13-13-13-13-|
E|---------------------------------------------------------------------------|
                              You tell yourself...
G|---------------------------------------------------------------------------|
D|---------------------------------------------------------------------------|
A|-13-13-13-13-13-13-13-13-13\-----------------------------------------------|
E|---------------------------------------------------------------------------|
              Every time that you think...
G|---------------------------------------------------------------------------|
D|---------------------------------------------------------------------------|
A|-------------------------------------8-8-8-8-8-8-8-8-8-8-8---8-10-8---6-6-6|
E|-13\-6-6-6-6-6-6-6-6-6-6-6-6-6-6-6-8-----------------------8--------8------|

G|---------------------------------------------------------------------------|
D|---------------------------------------------------------------------------|
A|-6-6-6-6-6-6-6-6---6-8-6-------------------8-8-8-8-8-8-8-8-6--6---6--6---6-|
E|-----------------6-------8-6-6-6-6-6-6-6-8----------------------6------6---|
                        [(Chorus) Give it up...
G|----------------------------------------------------------------------------|
D|----------------------------------------------------------------------------|
A|--6---6--6---8--8---8--8---8-------5-6--6-5------6-8--8-8------5-6--6-5-----|
E|----6------6------8------8-----3-6----------6--6-----------3-6----------6--6|

G|---------------------------------------------------------------------------|
D|---------------------------------------------------------------------------|
A|-6-8--8-8------5-6--6-5------6-8--8-8------5-6--6-5------6-8--8-8--6---6---|
E|-----------3-6----------6--6-----------3-6----------6--6-------------6---6-|
                                           ...crying over it]
G|---------------------------------------------------------------------------|
D|---------------------------------------------------------------------------|
A|-6---6---6---6---6---6---8---8---8---8---8\----------------------6--6------|
E|---6---6---6---6---6---6---8---8---8---8--------------------6-6--------3--3|
                                        People tell you to do...
G|----------------------------------------------------------10-------------------|
D|--------------------------------------------------7-8-10-----10-8----10---10/12|
A|--------------6--6---------------------------5-8------------------8-----8------|
E|-1--1-1-/6-6\-------3--3--1--1-1-/6--6-5-6-8-----------------------------------|

G|----------------------------------------------------------------------------------|
D|10---------7-8-10-8-7----8---8/10-8--------5-7-8-7-----------8-7------10---12---10|
A|---8--8-10------------6----6--------6--6-8---------------5-8-----8--8----8----8---|
E|---------------------------------------------------6--6---------------------------|

    So learn to smile...
G|-------------------------10-------------------|
D|-----------------7-8-10-----10-8----10---10/12|
A|------------5-8------------------8-----8------|
E|-6--6-5-6-8-----------------------------------|

G|---------------------------------------------------------------------------------|
D|10---------7-8-10-8-7----8---8/10-8--------5-7-8-7-----------8-7------10---12--10|
A|---8--8-10------------6----6--------6--6-8---------------5-8-----8--8----8----8--|
E|---------------------------------------------------6--6--------------------------|
  ...know you will be going.
G|----------------------------------------------|
D|----------------------------------------------|
A|--6--6---6--6---6--6---6--6---8--8---8--8---8\|
E|-------6------6------6------6------8------8---|
     Give it up...
G|----------------------------------------------|
D|----------------------------------------------|
A|-----5-6--6-5------6-8--8-8------5-6--6-5-----|
E|-3-6----------6--6-----------3-6----------6--6|

G|---------------------------------------------------------------------------|
D|---------------------------------------------------------------------------|
A|-6-8--8-8------5-6--6-5------6-8--8-8------5-6--6-5------6-8--8-8--6---6---|
E|-----------3-6----------6--6-----------3-6----------6--6-------------6---6-|
                                         ...crying over it.
G|--------------------------------------------------------|
D|--------------------------------------------------------|
A|-6---6---6---6---6---6---8---8---8---8---8\-------------|
E|---6---6---6---6---6---6---8---8---8---8----------------|
   You'll be the last one...
G|---------------------------------------------------------------------------|
D|---------------------------------------------------------------------------|
A|-5-5-5-5-5-5-5-5-6-6-6-6-6-6-6-6---------------------------------5-5-5-5-5-|
E|---------------------------------3-3-3-3-3-3-3-3-1-1-1-1-1-1-1-1-----------|

G|---------------------------------------------------------------------------|
D|----------------------8-8-8-8-8-10-8------8---10---8-----------------------|
A|5-5-5-6-6-6-6-6-6-6-6----------------8--8---8----8----5-5-5-5-5-5-5-5-6-6-6|
E|---------------------------------------------------------------------------|

G|---------------------------------------------------------------------------|
D|---------------------------------------------------------------------------|
A|-6-6-6-6-6---------------------------------6-6-6-6-6-6-6-6-6-6-6-6-6-6-6-6-|
E|-----------3-3-3-3-3-3-3-3-1-1-1-1-1-1-1-1---------------------------------|
                        Give it up...
G|---------------------------------------------------------------------------|
D|---------------------------------------------------------------------------|
A|-8-8-8-8-8-8-8-8-8\--------------------------------------------------------|
E|---------------------------------------------------------------------------|

 ...lies here dying, and there's no use crying over it.
G|------------------------------------------------------|
D|------------------------------------------------------|
A|-6---6---6---6---6---6---6---6---8---8---8---8---8\---|
E|---6---6---6---6---6---6---6---6---8---8---8---8------|

     Give it up for your anger...
G|--------------------------------------------------------|
D|--------------------------------------------------------|
A|-----5-6--6-5------6-8--8-8------5-6--6-5------6-8--8-8-|
E|-3-6----------6--6-----------3-6----------6--6----------|

G|--------------------------------------------------------|
D|--------------------------------------------------------|
A|-----5-6--6-5------6-8--8-8------5-6--6-5------6-8--8-8-|
E|-3-6----------6--6-----------3-6----------6--6----------|
     Give it up for human nature...
G|--------------------------------------------------------|
D|--------------------------------------------------------|
A|-----5-6--6-5------6-8--8-8------5-6--6-5------6-8--8-8-|
E|-3-6----------6--6-----------3-6----------6--6----------|

G|-----------------------------------------------------------------|
D|-----------------------------------------------------------------|
A|-----5-6--6-5------6-8--8-8------5-6--6-5------6-8--8-8--6---6---|
E|-3-6----------6--6-----------3-6----------6--6-------------6---6-|

                                         
G|--------------------------------------------------------------------------------|
D|--------------------------------------------------------------------------------|
A|-6---6---6---6---6---6---8---8---8---8---8---8---8---8---10----10----10----10---|
E|---6---6---6---6---6---6---8---8---8---8---8---8---8---8----10----10----10----10|

G|-----------------------------------------------------|
D|-----------------------------------------------------|
A|-10----10----10----10----12----12----12----12----12\-|
E|----10----10----10----10----13----13----13----13-----|

G|--------------------------------------------------------------------------|
D|--------------------------------------------------------------------------|
A|-----6--6---------------------6--6--------------------6--6----------------|
E|-6-6-------3--3--1--1-1-/6-6\-------3--3--1--1-1-/6-6-------3--3--1--1-1/-|

G|--------------------------------------------------------------------------|
D|8-7-5-------------5-------------------------------------------------------|
A|------8--6-5-6--8---8--6-5------------------------------------------------|
E|---------------------------6----------------------------------------------|

| /  slide up
| \  slide down
| h  hammer-on
| p  pull-off
| ~  vibrato
| +  harmonic
| x  Mute note
Suggest correction
What's this?
You can suggest a correction to this tab. Community and Mods will review your correction and vote to approve or reject it.
comments
print report bad tab
guest
You may want to rate the tab now too:
select rating
Please do not post tabs as comments. Select "correction" instead!