Oops, an error
Loading. Please wait.

Heads Up Hearts Down Bass Tab

912 views 1 this week
no commentswrite comment
1 2 3 4 5
excellent!
x 4
add to favorites
launch autoscroll
font size
0
reset
guitar tuner
Autoscroll
slow
fast
+/-
esc
set tempo
stop
Help us to improve Ultimate-Guitar.com Take our survey!
×
Author
Difficulty
intermediate
-------------------------------------------------------------------------------
HEADS UP HEARTS DOWN - I Fight Dragons
-------------------------------------------------------------------------------
Tabbed By: Hari Rao
e-mail: harirao1@gmail.com
Tuning: Standard

   Intro  
G|---------------------------------------------------------------------------|
D|---------------------------------------------------------------------------|
A|---------3-3-3-3-3-3-3-3-3-3-3-3-3-3-3-------------------------------------|
E|---------------------------------------3-1-1-1-1-1-1-1-1-1-1-1-1-1-1-1-3-5-|

                                                                  Take a number...
G|---------------------------------------------------------------------------------|
D|---------------------------------------------------------------------------------|
A|------------------------------3--3-3--3-3-5---------------3-3-3-3-3-3-3-3-3-3-3-3|
E|5-5-5-5-5-5-5-5-5-5-5-5-5-5-3---------------3--3-3--3-3-5------------------------|

G|---------------------------------------------------------------------------|
D|---------------------------------------------------------------------------|
A|3-3-3-3-----------------------------------------------------------------3--|
E|--------0-0-0-0-0-0-0-0-0-0-0-0-0-0-0-0-1-1-1-1-1-1-1-1-1-1-1-1-1-1-1-1----|

G|----------------------------------------------------------------------------|
D|-------------------5--------------------------------------------------------|
A|3----3-----------5---5-3-3-3-3-3-3-3-3-3-3-3-3-3-3-3-3----------------------|
E|---3---3--3-3-3----------------------------------------0-0-0-0-0-0-0-0-0-0-0|
                                                                         
G|-------------------------------------------------------------------------|
D|-------------------------------------------------------------------------|
A|------------------------------------------3--3----3----------------------|
E|0-0-0-0-0-1-1-1-1-1-1-1-1-1-1-1-1-1-1-1-1-------3---3--3-3-3--3-3-3-1--1-|

                                                       Heads up, hearts 
G|--------------------------------------------------------------------------|
D|--3----------3-------------------5----------------------------------------|
A|----------------------------------------------3--3-3----3---3--3-3----3-3-|
E|1----1-1-1-1---1-3-3-3-3-3-3-3-3----3-3-3-3-----------3---3---------3-----|
 
  down...
G|----------------------------------------------------------------------------|
D|--------------/7-5----------------------------------------------------------|
A|--------------------7-5-3-0--------3-3-----5-5--------8-8-8\--3--3-3--3-5---|
E|3--3-3--3-3-3---------------1--1-1------/3-------/5-5---------------------3-|

                  Heads up, hearts 
G|-------------------------------------------|
D|-------------------------------------------|
A|---------------3--3-3----3---3--3-3----3-5-|
E|-3-3-3--3-3-5----------3---3---------3-----|

  down...
G|---------------------------------------------------------------------------|
D|---------------------------------------------------------------------------|
A|-----------------------------------3-3-----5-5--------8-8-8\--3--3-3--3-5--|
E|3--3-3--3-3-3-3--3-3--3-3-3-1--1-1------/3-------/5-5---------------------3|
                      
G|-------------------------------------------------------------------------------|
D|-------------------------------------------------------------------------------|
A|---------------3-3-3-3-3-3-3-3-3-3-3-3-3-3-3-----------------------------------|
E|--3-3-3--3-3-5------------------------------3-1-1-1-1-1-1-1-1-1-1-1-1-1-1-1-3-5|

                                                                  Your composure...
G|---------------------------------------------------------------------------------|
D|---------------------------------------------------------------------------------|
A|------------------------------3--3-3----3-----------------3-3-3-3-3-3-3-3-3-3-3-3|
E|5-5-5-5-5-5-5-5-5-5-5-5-5-5-3---------3---3--3-3-3--3-3-3------------------------|

G|---------------------------------------------------------------------------|
D|---------------------------------------------------------------------------|
A|3-3-3-3-----------------------------------------------------------------3--|
E|--------0-0-0-0-0-0-0-0-0-0-0-0-0-0-0-0-1-1-1-1-1-1-1-1-1-1-1-1-1-1-1-1----|

G|-----------------------------------------------------------------------------|
D|--------------------5--------------------------------------------------------|
A|3-3----3----------5---5-3-3-3-3-3-3-3-3-3-3-3-3-3-3-3-3----------------------|
E|-----3---3--3-3-3---------------------------------------0-0-0-0-0-0-0-0-0-0-0|
                                                                         
G|-----------------------------------------------------------------------------|
D|-----------------------------------------------------------------------------|
A|------------------------------------------3--3-3----3------------------------|
E|0-0-0-0-0-1-1-1-1-1-1-1-1-1-1-1-1-1-1-1-1---------3---3--3-3-3-3--3-3-3-1--1-|

                                                       Heads up, hearts 
G|------------------------------------------------------------------------|
D|--3---------3------------------5----------------------------------------|
A|--------------------------------------------3--3-3----3---3--3-3----3-3-|
E|1----1--1-1----3-3-3-3-3-3-3-3---3-3-3-3-3----------3---3---------3-----|

  down...
G|---------------------------------------------------------------------------|
D|--------------/7-5---------------------------------------------------------|
A|--------------------7-5-3-0--------3-3-----5-5--------8-8-8\--3--3-3--3-5--|
E|3--3-3--3-3-3---------------1--1-1------/3-------/5-5---------------------3|

                    Heads up, hearts 
G|-------------------------------------------|
D|-------------------------------------------|
A|---------------3--3-3----3---3--3-3----3-5-|
E|-3-3-3--3-3-5----------3---3---------3-----|
 
  down...
G|---------------------------------------------------------------------------|
D|---------------------------------------------------------------------------|
A|-----------------------------------3-3-----5-5--------8-8-8\--3--3-3--3-5--|
E|3--3-3--3-3-3-3--3-3--3-3-3-1--1-1------/3-------/5-5---------------------3|

       Onward  bound...                   ...inside the sound... 
G|-----------------------------------------------------------------------------|
D|-----------------------------------------------------------------------------|
A|-------------------------------3--3----3-------------------------------3--3-3|
E|--3-3-3--3-3--0--0--0-0-1--1-1-------3---3--3--3-/10\-0--0--0-0-1--1-1-------|

        ...darkness all around...                                              
G|----------------------------------------------------------------------------------|
D|----------------------------------------------------------------------------------|
A|---3-----------------------------------3--3-3----3--------------------------------|
E|-3---3--3-3-3--3-/12\-0--0--0-0-1--1-1---------3---3--3-3-3-3-3-3-3-3-3-3-3-3-3-3-|

    Heads up...
G|---------------------------------------------------------------------------|
D|------------------------------7-5------------------------------------------|
A|-----------------------------------7-5-3-0-3-------3-------3-5--3--3-3--3-5|
E|-/8----------8\-3--3-3--3-3-3----------------1-1-1---1-1-1-----------------|

G|---------------------------------------------------------------------------|
D|---------------------------------------------------------------------------|
A|----------------3--3-3----3---3--3-3----3-5-----------------------------3--|
E|3--3-3-3--3-3-3---------3---3---------3-----3--3-3--3-3-3-3--3-3--3-3-3---1|

G|---------------------------------------------------------------------------|
D|---------------------------------------------------------------------------|
A|------3-------3--5--3--3-3--3-5-----------------3--------------------------|
E|1-1-1---1-1-1-------------------3--3-3-3--3-3-5----------------------------|

| /  slide up
| \  slide down
| h  hammer-on
| p  pull-off
| ~  vibrato
| +  harmonic
| x  Mute note
Suggest correction
What's this?
You can suggest a correction to this tab. Community and Mods will review your correction and vote to approve or reject it.
comments
print report bad tab
guest
You may want to rate the tab now too:
select rating
Please do not post tabs as comments. Select "correction" instead!