Oops, an error
Loading. Please wait.

Kaboom Tab

1,539 views 6 this week
no commentswrite comment
1 2 3 4 5
please rate
add to favorites
launch autoscroll
font size
0
reset
how to read this tab
guitar tuner
Autoscroll
slow
fast
+/-
esc
set tempo
stop
Help us to improve Ultimate-Guitar.com Take our survey!
×
Contributor
-------------------------------------------------------------------------------
                             KABOOM!- I Fight Dragons
-------------------------------------------------------------------------------
Tabbed by: Niall Hamilton
E-mail: theNiallHamilton@gmail.com

Let me know if there’s anything wrong with this tab and I’ll fix it right away

My cover here!: http://www.youtube.com/watch?v=sdh9STuJUfY


Tuning:Standard (EADGBe)

(Intro – Verse)
                                   Life is like…
e|---------------------------------------------------------------------------|
B|---------------------------------------------------------------------------|
G|--------------3---------------3--------------3--------------3--------------|
D|--44444-44444-3---44444-44444-3--44444-44444-3--44444-44444-3--------------|
A|--44444-44444-1---44444-44444-1--44444-44444-1--44444-44444-1--------------|
E|--22222-22222-----22222-22222----22222-22222----22222-22222----------------|
    PM--- PM---     PM--- PM---    PM--- PM---    PM--- PM---

                    Gone….                   Who’s it’s gonna be…
e|---------------------------------------------------------------------------|
B|---------------------------------------------------------------------------|
G|-------------3-------------------------3--------------3--------------3-----|
D|-44444-44444-3---44444444--44444-44444-3--44444-44444-3--44444-44444-3-----|
A|-44444-44444-1---44444444--44444-44444-1--44444-44444-1--44444-44444-1-----|
E|-22222-22222-----22222222--22222-22222----22222-22222----22222-22222-------|
   PM--- PM---     PM------  PM--- PM---    PM--- PM---    PM--- PM---

                   Who’ side are…          On…
e|---------------------------------------------------------------------------|
B|---------------------------------------------------------------------------|
G|-------------3-------------------------3-----------------------------------|
D|-44444-44444-3—-44444444---44444-44444-3-----------------------------------|
A|-44444-44444-1—-44444444---44444-44444-1-----------------------------------|
E|-22222-22222----22222222---22222-22222-------------------------------------|
   PM--- PM---    PM------

(Chorus)

   Well…                drop…                drop…
e|---------------------------------------------------------------------------|
B|---------------------------------------------------------------------------|
G|-7-77-7-77-7-77-7777-------------------------------------------------------|
D|-7-77-7-77-7-77-7777--7-77-7-77-7-77-7777--4-44-4-44-4-44-4444-------------|
A|-5-55-5-55-5-55-5555--7-77-7-77-7-77-7777--4-44-4-44-4-44-4444-------------|
E|----------------------5-55-5-55-5-55-5555--2-22-2-22-2-22-2222-------------|

   …maybe…              love…                get to you…
e|---------------------------------------------------------------------------|
B|---------------------------------------------------------------------------|
G|-6-66-6-66-6-66-6666--7-77-7-77-7-77-7777----------------------------------|
D|-6-66-6-66-6-66-6666--7-77-7-77-7-77-7777--7-77-7-77-7-77-7777-------------|
A|-4-44-4-44-4-44-4444--5-55-5-55-5-55-5555--7-77-7-77-7-77-7777-------------|
E|-------------------------------------------5-55-5-55-5-55-5555-------------|






 
                  …KABOOM!                    …KABOOM!
e|---------------------------------------------------------------------------|
B|---------------------------------------------------------------------------|
G|-----66--77--------------------66--10-10-----------------------------------|
D|-44--66--77--77------------44--66—-10-10-7-7-------------------------------|
A|-44--44--55--77------------44--44—-8--8--7-7-------------------------------|
E|-22----------55------------22------------5-5-------------------------------|


(Verse 2) 

 (ChipTune Interlude)   Don’t try…                                   …line…
e|---------------------------------------------------------------------------|
B|---------------------------------------------------------------------------|
G|-------------------3--------------3--------------3--------------3----------|
D|-------------------3--44444-44444-3--44444-44444-3--44444-44444-3--44444444|
A|-------------------1--44444-44444-1--44444-44444-1--44444-44444-1--44444444|
E|----------------------22222-22222----22222-22222----22222-22222----22222222|
                        PM--- PM---    PM--- PM---    PM--- PM---    PM------

   Cause in the end…                                                …line…
e|---------------------------------------------------------------------------|
B|---------------------------------------------------------------------------|
G|---------------------------------------------------------------------------|
D|-44444-44444-78--44444-44444-78--44444-44444-78--44444-44444-78--44444444--|
A|-44444-44444-78--44444-44444-78--44444-44444-78--44444-44444-78--44444444--|
E|-22222-22222-56--22222-22222-56--22222-22222-56--22222-22222-56--22222222--|
   PM--- PM---     PM--- PM---     PM--- PM---     PM--- PM---     PM------

e|---------------------------------------------------------------------------|
B|---------------------------------------------------------------------------|
G|---------------------------------------------------------------------------|
D|-44444-44444-78-4----------------------------------------------------------|
A|-44444-44444-78-4----------------------------------------------------------|
E|-22222-22222-56-2----------------------------------------------------------|

(Chorus)

   Well…                drop…                drop…
e|---------------------------------------------------------------------------|
B|---------------------------------------------------------------------------|
G|-7-77-7-77-7-77-7777-------------------------------------------------------|
D|-7-77-7-77-7-77-7777--7-77-7-77-7-77-7777--4-44-4-44-4-44-4444-------------|
A|-5-55-5-55-5-55-5555--7-77-7-77-7-77-7777--4-44-4-44-4-44-4444-------------|
E|----------------------5-55-5-55-5-55-5555--2-22-2-22-2-22-2222-------------|

   …maybe…              love…                get to you…
e|---------------------------------------------------------------------------|
B|---------------------------------------------------------------------------|
G|-6-66-6-66-6-66-6666--7-77-7-77-7-77-7777----------------------------------|
D|-6-66-6-66-6-66-6666--7-77-7-77-7-77-7777--7-77-7-77-7-77-7777-------------|
A|-4-44-4-44-4-44-4444--5-55-5-55-5-55-5555--7-77-7-77-7-77-7777-------------|
E|-------------------------------------------5-55-5-55-5-55-5555-------------|






 
          

        …KABOOM!                    …KABOOM!
e|---------------------------------------------------------------------------|
B|---------------------------------------------------------------------------|
G|-----66--77--------------------66--77--------------------------------------|
D|-44--66--77--77------------44--66--77--77----------------------------------|
A|-44--44--55--77------------44--44--55--77----------------------------------|
E|-22----------55------------22----------55----------------------------------|

                  …KABOOM!                    …KABOOM!
e|---------------------------------------------------------------------------|
B|---------------------------------------------------------------------------|
G|-----66--77--------------------66--10-10-----------------------------------|
D|-44--66--77--77------------44--66—-10-10-7-7-------------------------------|
A|-44--44--55--77------------44--44—-8--8--7-7-------------------------------|
E|-22----------55------------22------------5-5-------------------------------|

(Bridge) – Repeat Three Times

Pick with side your on, drop the bomb…
e|---------------------------------------------------------------------------|
B|---------------------------------------------------------------------------|
G|-----66--77--------66--10-10-----------------------------------------------|
D|-----66--77-77--44-66--10-10-7-7-------------------------------------------|
A|-44--44--55-77--44-44--8--8--7-7-------------------------------------------|
E|-22---------55--22-----------5-5-------------------------------------------|
  PM------------------------------

(Chorus)

   Well…                drop…                drop…
e|---------------------------------------------------------------------------|
B|---------------------------------------------------------------------------|
G|-7-77-7-77-7-77-7777-------------------------------------------------------|
D|-7-77-7-77-7-77-7777--7-77-7-77-7-77-7777--4-44-4-44-4-44-4444-------------|
A|-5-55-5-55-5-55-5555--7-77-7-77-7-77-7777--4-44-4-44-4-44-4444-------------|
E|----------------------5-55-5-55-5-55-5555--2-22-2-22-2-22-2222-------------|

   …maybe…              love…                get to you…
e|---------------------------------------------------------------------------|
B|---------------------------------------------------------------------------|
G|-6-66-6-66-6-66-6666--7-77-7-77-7-77-7777----------------------------------|
D|-6-66-6-66-6-66-6666--7-77-7-77-7-77-7777--7-77-7-77-7-77-7777-------------|
A|-4-44-4-44-4-44-4444--5-55-5-55-5-55-5555--7-77-7-77-7-77-7777-------------|
E|-------------------------------------------5-55-5-55-5-55-5555-------------|

                  …KABOOM!                    …KABOOM!
e|---------------------------------------------------------------------------|
B|---------------------------------------------------------------------------|
G|-----66--77--------------------66--10-10-----------------------------------|
D|-44--66--77--77------------44--66—-10-10-7-7-------------------------------|
A|-44--44--55--77------------44--44—-8--8--7-7-------------------------------|
E|-22----------55------------22------------5-5-------------------------------|

      




                  …KABOOM!                    …KABOOM!
e|---------------------------------------------------------------------------|
B|---------------------------------------------------------------------------|
G|-----66--77--------------------66--10-10-----------------------------------|
D|-44--66--77--77------------44--66—-10-10-7-7-------------------------------|
A|-44--44--55--77------------44--44—-8--8--7-7-------------------------------|
E|-22----------55------------22------------5-5-------------------------------|


************************************

| /   slide up
| \   slide down
| h   hammer-on
| p   pull-off
| ~   vibrato
| +   harmonic
| x   Mute note
| b   Bend
| pb  Pre-bend
| br  Bend release
| pbr Pre-bend release
| brb Bend release bend

************************************
comments
We did not receive enough feedback on this tab! Please rate:
print report bad tab
1 2 3 4 5
I want to post or [tab]
guest
You may want to rate the tab now too:
select rating
Please do not post tabs as comments. Select "correction" instead!