Oops, an error
Loading. Please wait.

Money Bass Tab

3,004 views 3 this week
no commentswrite comment
1 2 3 4 5
excellent!
x 6
add to favorites
launch autoscroll
font size
0
reset
guitar tuner
Autoscroll
slow
fast
+/-
esc
set tempo
stop
Help us to improve Ultimate-Guitar.com Take our survey!
×
Author
-------------------------------------------------------------------------------
MONEY - I Fight Dragons
-------------------------------------------------------------------------------
Tabbed By: Hari Rao
e-mail: harirao1@gmail.com
Tuning: D-A-D-G

*(Note: I tabbed this out for a four string since that's how I play it.
Also, I use distortion in the live set but its clean on the EP)

G|---------------------------------------------------------------------------|
D|---------------------------------------------------------------------------|
A|---------------------------------------------------------------3-----------|
D|-0-0-0-0-0-0-7-7-8-8-8-8-8-8-7-7-5-5-5-5-5-5-5-5-7-7-7-7-7-5-7-------------|

* Shown above is the repeated rhythm during the intro and all the verses.

Chorus: x2
  Money, Money, Money makes the world...
G|---------------------------------------------------------------------------|
D|---------------------------------------------------------------------------|
A|---------------------------------------------------------------3-----------|
D|-0-0-0-0-0-0-7-7-8-8-8-8-8-8-7-7-5-5-5-5-5-5-5-5-3-3-3-3-3-5-7-----0-------|

[Breakdown]
G|---------------------------------------------------------------------------|
D|-------7-8-7-8-5-7-------5-7-5-7-----------7-8-7-8-5-7-------5-7-5-7-------|
A|-5-5-5-------------8-8-8---------7-8-5-5-5-------------4-4-4---------7-8---|
D|---------------------------------------------------------------------------|

G|---------------------------------------------------------------------------|
D|-------7-8-7-8-5-7-------5-7-5-7-----------7-8-7-8-5-7-------5-7-5-7-------|
A|-5-5-5-------------8-8-8---------7-8-5-5-5-------------4-4-4---------7-8---|
D|---------------------------------------------------------------------------|

G|-7---7-9-10-9-7------------------------------------------------------------|
D|----------------10-8---8-h10-8-7----------7--8--10--7-0-8-0-10-0-12-0-14-15|
A|---------------------------------10-8-10-----------------------------------|
D|---------------------------------------------------------------------------|

Then go back to the chorus to finish; simple as that! Feel free to email me any 
questions - hari@ifightdragons.com

| /  slide up
| \  slide down
| h  hammer-on
| p  pull-off
| ~  vibrato
| +  harmonic
| x  Mute note
Suggest correction
comments
print report bad tab
guest
You may want to rate the tab now too:
select rating
Wanna post a correction for this tab? Suggest correction