Oops, an error
Loading. Please wait.

Tnt Tab

712 views 1 this week
no commentswrite comment
1 2 3 4 5
1 last vote to show rating
add to favorites
launch autoscroll
font size
0
reset
how to read this tab
guitar tuner
Autoscroll
slow
fast
+/-
esc
set tempo
stop
Help us to improve Ultimate-Guitar.com Take our survey!
×
Author
Difficulty
novice
----------------------------------------------------------------------------
                             TNT - I Got You On Tape
----------------------------------------------------------------------------
Tabbed by: Bee-Ay
Email:


Tuning: D#-G#-C#-F#-A#-D#  -->    Stem din guitar en halv tone ned.



Vers riff som gentages det meste af sangen (akustisk guitar):
D#|--------------------------------|
A#|--------------------------------|
F#|--------------------------------|
C#|-4-4---4-4-4---4-4-4---5-5-5--4-|
G#|-2-2---2-2-2---2-2-2---5-5-5--4-|
D#|-2-2---2-2-2---2-2-2---3-3-3--2-|


Bro i vers:
D#|--------------------------------|
A#|--------------------------------|
F#|--------------------------------|
C#|-7-7---7-7-7---7-8-8---8-8-8--8-|
G#|-5-5---5-5-5---5-8-8---8-8-8--8-|
D#|-5-5---5-5-5---5-6-6---6-6-6--6-|


Elektrisk guitarfills:
D#|-------------------------------|---------------------------|
A#|-------------------------------|---------------------------|
F#|-------------------------------|-4---------4---------------|
C#|---------4---------4-----------|---4--------4--------------|
G#|---2-4-5-----2-4-5---5-2-------|-----5-4-2----5-4-2-4-5----|
D#|-2---------2-------------3~----|------------------------3~-|


"Omkvæd" af en art. Fingerspil på spansk guitar, 
som er bygget over denne barré akkord:
D#|-0-|
A#|-0-|
F#|-0-|
C#|-7-|
G#|-7-|
D#|-5-|



Outro:
Den akustiske guitar spiller Am som kører i shuffle rytme, 
der efter 3 takter går til Em på den 4. takt:

   Am        Em
D#|-0-|   D#|-0-|
A#|-1-|   A#|-0-|
F#|-2-|   F#|-0-|
C#|-2-|   C#|-2-|
G#|-0-|   G#|-2-|
D#|-x-|   D#|-0-|


Den lille melodi som den elektriske guitar spiller ind over outroen:
D#|--------------------|
A#|----8---------------|
F#|-------9----7---5---|
C#|-7--------7-------7-|
G#|--------------------|
D#|--------------------|
Suggest correction
Give kudos to tab author, rate the tab!
1 2 3 4 5
comments
print report bad tab
guest
You may want to rate the tab now too:
select rating
Wanna post a correction for this tab? Suggest correction