Oops, an error
Loading. Please wait.

To A Husband At War Bass Tab

1,032 views 3 this week
no commentswrite comment
1 2 3 4 5
please rate
add to favorites
launch autoscroll
font size
0
reset
guitar tuner
Tab Pro tools
  • play this tab
  • loop segment
  • change instrument
  • show fretboard
  • metronome
×
Best way to learn
"To A Husband At War"
Autoscroll
slow
fast
+/-
esc
set tempo
stop
Contributor
Difficulty
novice
To a Husband at War - I Hate Myself

Timing in this tab is off, just listen to the song; the bass is quite distinct.

First 2 parts should be fine, the 3rd part I haven't spent much time on, but sound about right.


G|-------10-13-10---11-10---|
D|11--11-----------------11-|
A|--------------------------|
E|--------------------------|

G|-------10-13-10---11-10----|
D|-10--10-----------------10-|
A|---------------------------|
E|---------------------------|

G|-----8-10-8---11--10-8-----|      First Riff
D|8--8-----------------------|
A|---------------------------|
E|---------------------------|

G|-----8----10----11---13----|
D|6--6----8----10---11-------|
A|---------------------------|
E|---------------------------|
_________________________________________________________


G|---------13-----------10-------|
D|--11--11---10~~~~8--8---6~~~~~-|
A|-------------------------------|   Second Riff
E|-------------------------------|

__________________________________________________________

This last bit has two parts.
The first part is played from when the distorted guitar comes in, and changes to the 
second when the vocals come in again.

I actually don't have any idea what is played here, however this roughly fits.
G|---------------------------------------|
D|---------------------------------------|
A|----------------11----------------8----|
E|---9-99999--9999--99--6-66666-6666--66-|

2nd part - Pretty confident this is right.

G|-------------------------------------|
D|-------------------------------------|
A|-------------------------------------|
E|-9-99999-99999-99--8-88888-88888-88--|

G|------------------------------------|
D|------------------------------------|
A|------------------------------------|
E|6-66666-66666-66--8-888888-88888-88-|


If you have an questions, leave your email in the comments and I'll get back to you,
Cheers.
comments
We did not receive enough feedback on this tab! Please rate:
print report bad tab
1 2 3 4 5
I want to post or [tab]
guest
You may want to rate the tab now too:
select rating
Please do not post tabs as comments. Select "correction" instead!