Oops, an error
Loading. Please wait.

To A Husband At War Tab

version 2
version 2

Whole song

4,531 views 15 this week
no commentswrite comment
1 2 3 4 5
excellent!
x 6
add to favorites
launch autoscroll
font size
0
reset
how to read this tab
guitar tuner
Tab Pro tools
  • play this tab
  • loop segment
  • change instrument
  • show fretboard
  • metronome
×
Best way to learn
"To A Husband At War"
Autoscroll
slow
fast
+/-
esc
set tempo
stop
Difficulty
novice
-------------------------------------------------------------------------------
                             To A Husband At War - I Hate Myself
-------------------------------------------------------------------------------
Tabbed by: ricky_the_panda
Email: realkolguy@yahoo.com

Tuning: Standard


INTRO

e|---------------------------------------------------------------------------|
B|---------------------------------------------------------------------------|
G|---------------------------------------------------------------------------|
D|--------5------------------5--------------------------------------------5--|
A|------7---7---8-7--------7---7-8-7--------5-7-5-8-7---------5---7---8---8--|
E|--8-8-------------8--7-7-----------7--5-5-----------5---3-3---5---5---5----|

VERSE CHORDS

e|-----------------------------------------------------------------------------|
B|-----------------------------------------------------------------------------|
G|------------------ (you can figure out the exact progression ----------------|
D|-----5--5--5--5-------- and also, use these chords for ----------------------|
A|-----7--7--7--7--(x2)--- the epic part at the end )--------------------------|
E|-----8--7--5--7--------------------------------------------------------------|


BRIDGE CHORDS

e|-----------------------------------------------------------------------------|
B|-----------------------------------------------------------------------------|
G|--------------- (the notes in parentheses do not HAVE to be added -----------|
D|----5--(2)-(5)----- so play them if you want. and again, you can ------------|
A|----7---3---2--(x4)---------- figure out the progression) -------------------|
E|----8---5---3----------------------------------------------------------------|
comments
print report bad tab
I want to post or [tab]
guest
You may want to rate the tab now too:
select rating
Please do not post tabs as comments. Select "correction" instead!