Oops, an error
Loading. Please wait.

The Hand That Beats Us Down bass

141 views 1 this week
no commentswrite comment
1 2 3 4 5
3 more votes to show rating
add to favorites
×
Save as Personal and add changes to this tab that will be seen only by you. Learn more ›
×
You can save this tab as Personal to edit and correct it or add notes. All changes will be seen only by you. Learn more »
launch autoscroll
font size
0
reset
guitar tuner
edit
Autoscroll
slow
fast
+/-
esc
set tempo
stop
Author
Difficulty
Band:I Hate Sally
Song:The Hand That Beats us Down
tuning;normal

*=let ring

i hate sally is a 4-peice band from Kingston, Ont. after a few line up changes, they are 
with just the fundumentals: 1 guitarist, 1 bassist,
1 drummer, and 1 singer/dancer.of course, if you cared enough to look at this tab, you 
know that by now, because this tab makes NO sense without the music that it goes to.

 riff A
|----|--|--------------------------------------------|
|----|--|--------------------------------------------|
|----|23|--3-5--5-7---7-9-9-10-7957352323-3*-5*-3*-1*| x3
|-2*-|--|0-----0----0--------------------------------|

 riff B
|-------------|  |---------|
|-------------|  |---------|
|2-3-2-4-2-5-3|x3|2-3--7--5| x2
|-------------|  |---------|

 riff C (chorus)
|-------------------------------------------------------------|
|-----------------------3-1---1------------------------7-5---5|
|----------------1111111----3-------------------5555555----7--|x4
|3333333311111111---------------7777777755555555--------------|

 riff D
|-------------------|   |------|
|-------------------|   |------|
|--35--57--7910979--|x8 |12-10-|
|-------------------|   |------|

(repeat riff B)

(repeat riff C)

 riff E                   riff F
|---------------------|   |---------------------------|
|---------------------|   |---------------------------|
|-----3*-------3-5-6-5|x3 |------------3*-------------|
|--2-3---2-3-3*-------|   |--2*----3*--------0*---0*--|


enjoi.
Suggest correction
Creating personal tab
Creating personal tab
You can edit any tab online and save it as your Personal.

You can edit, replace or remove any tab part or add personal notes – all changes will be seen only by you.

Personal tabs can be accessed anytime from any device, even offline.
Learn more »
Give kudos to tab author, rate the tab!
1 2 3 4 5
comments
print report bad tab
guest
You may want to rate the tab now too:
select rating
Wanna post a correction for this tab? Suggest correction