Oops, an error
Loading. Please wait.

Deepest Sleep Tab

version 1
version 1

Intro

Whole song

Interactive

1,778 views 1 this week
4 commentsread comments
1 2 3 4 5
accurate
x 2
add to favorites
launch autoscroll
font size
0
reset
how to read this tab
guitar tuner
Tab Pro tools
  • play this tab
  • loop segment
  • change instrument
  • show fretboard
  • metronome
Autoscroll
slow
fast
+/-
esc
set tempo
stop
Contributor
Tabbed By: Kse19852009 Email: Kse19852009@hotmail.com
So this is my second tab its a bit more difficult than my last one.  This is my favorite 
by I Killed the Prom Queen. Its only close to half of the song but ill try to get it 
so let me know ehat you think about it so far :)
it was just taking a really long time to get all the intracate little details lol but 
at least a start if someonellse wants to use this to finish go right ahaead i dont mind
Tuning Low to High all guitars 1 1/2 step down B,F#,B,E,G#,C#

Intro start with pick scrap
 (gtr3)
|--------------------------------------------------|
|--------------------------------------------------|
|--14-12---12--------------------------------------|
|--------15---15-14-15-14-12----12-14-12-----------|
|----------------------------15--------------------|
|-----------------------------------------12-10-12-|

 (gtr 1&2)
|---------------------------------|
|---------------------------------|
|---------------------------------|
|--0-000-003-333-335-555-553-33---|
|--0-000-003-333-335-555-551-11---|
|--0-000-003-333-335-555-55----575|
                           p.m.***

|------------------------------------------------------------------|
|------------------------------------------------------------------|
|--14-12---12-------------------------------------15p14p12---------|
|--------15---15-14-15-14-12----12-14-12-14-15-14---------15p14p12-|
|----------------------------15------------------------------------|
|------------------------------------------------------------------|

|----------------------------------|
|----------------------------------|
|------------------3-333-335-55----|
|--0-000-003-333-331-111-113-33----|
|--0-000-003-333-33----------------|
|--0-000-003-333-33------------0575|
                           p.m.****

|--------------------------------------------------|
|--------------------------------------------------|
|--14-12---12--------------------------------------|
|--------15---15-14-15-14-12----12-14-12-----------|
|----------------------------15--------------------|
|-----------------------------------------12-10-12-|

|---------------------------------|
|---------------------------------|
|---------------------------------|
|--0-000-003-333-335-555-553-33---|
|--0-000-003-333-335-555-551-11---|
|--0-000-003-333-335-555-55----575|
                           p.m.***

|------------------------------------------------------------------|
|------------------------------------------------------------------|
|--14-12---12-------------------------------------12-14-12---------|
|--------15---15-14-15-14-12----12-14-12-14-15-14----------15-14-15|
|----------------------------15------------------------------------|
|------------------------------------------------------------------|

|----------------------------------|
|----------------------------------|
|------------------3-333-335-55----|
|--0-000-003-333-331-111-113-33----|
|--0-000-003-333-33----------------|
|--0-000-003-333-33------------0575|
                           p.m.****

Vers1
 (gtr1)                                                        (gtr1&2)
|---------------------------------------------------|X2  |----------------|
|---------------------------------------------------|T   |----------------|
|---------------------------------------------------|h   |----------------|
|------------75--------------5h7p5---------------75-|e   |5-5-5558-8-10-10|
|---8-58-37-8--8---8-58-37-8-------8---8-58-37-8---8|n   |5-5-5558-8-10-10|
|0-0-0--0--0-0--0-0-0--0--0-0-------0-0-0--0--0-0---|--> |5-5-5558-8-10-10|
   * *  *  * *    * *  *  *           * *  *  * *
 (gtr2) riff A                                                       ^
|---------------|repeat                                       ---|
|---------------|throughout                                   ---|
|---------------|gtr 1s part then -------------------------------|
|----------------------------------------------------------------|
|--00--0-00-0----------------------------------------------------|
|0-00--0-00-0---------------------------------------------------|
 * **  * ** *
 (gtr2) riff B
|--------------------------------------------------|
|--------------------------------------------------|
|--------------------------------------------------|
|---7-57-23-5-75---7-57-23-5-5h7p5---7-57-23-5-75--|
|---------------85----------------85-------------85|
|0-0-0--0--0-0----0-0--0--0-0-------0-0--0--0-0----|
   * *  *  * *    * *  *  * *       * *  *  * *
Pre chorus (gtr 1)
|---------------------------------------|    |-----------------|
|---------------------------------------|    |-----------------|
|101010910--------1010109-1010-5-5------|x2  |-----------------|
|-x-x-xx-x--7-5-3--x-x-xx--x-x-x-x------|    |3-3-33-3-53p23p2-|
|-8-8-87-8---------8-8-87--8-8-3-3------|    |3-3-33-3--------3|
|-------0--0-0-0---------0---------0<3>-|    |3-3-33-3---------|
           * * *                   *
   (gtr2)
|----------------------------------------|
|----------------------------------------|
|----------------------------------------|x2
|1010109-7-------1010109-1010-5-5--------|
|-8-8-87-5--8-7-5-8-8-87--8-8-3-3--------|
|-------0--0-0-0--------0---------0<3>---|
        *  * * *        *         *
comments
We did not receive enough feedback on this tab! Please rate:
print report bad tab
1 2 3 4 5
4 comments total. Showing first comments.
0 reply
kse19852009 wrote on August 8 2009, 10:39 am

well crap i can see some places where i messed up grrr :\
i messed up on the first line of the intro and gtr 2 riff A has one one to many open "0"
0
On the intro Gtr 3 the last three notes of the first measure shoud be on the F# string ( or A string in standard)
And intro riff should be -00--0-00-0
0-00--0-00-0

0 reply
billybusa wrote on August 23 2009, 08:12 am

Verse riff goes:

|---------------------------------------------------|x2
|---------------------------------------------------|
|---------------------------------------------------|
|------------75--------------5h7p5---------------75-|
|---8-58-37-8--8---8-58-37-8-------8---8-58-37-8---8|
|0-0-0--0--0-0--0-0-0--0--0-0-------0-0-0--0--0-0---|

Other than that, this tab is great. :)

0 reply
billybusa wrote on August 23 2009, 08:13 am

You should tab the whole song though.

I want to post or [tab]
guest
You may want to rate the tab now too:
select rating
Please do not post tabs as comments. Select "correction" instead!