Oops, an error
Loading. Please wait.

Headfirst From A Hangmans Noose tab

version 1
version 1

Whole song

Interactive

2,676 views 1 this week
1 commentread comment
1 2 3 4 5
2 more votes to show rating
add to favorites
×
Save as Personal and add changes to this tab that will be seen only by you. Learn more ›
×
You can save this tab as Personal to edit and correct it or add notes. All changes will be seen only by you. Learn more »
launch autoscroll
font size
0
reset
how to read this tab
guitar tuner
edit
Autoscroll
slow
fast
+/-
esc
set tempo
stop
                       Headfirst From A Hangman's Noose                         


                                                         I Killed the Prom Queen
Jona
Tune to Drop B.



      E  E  E  E  E  E  E  E     E  E  E  E  E  E  E  E   
C#||--------------------------|--------------------------|
G#||--------------------------|--------------------------|
E ||--------------------------|--------------------------|
B ||-----3--3-----3--3-----3--|-----3--3-----3--3--3--3--|
F#||-----5--5-----5--5-----5--|-----5--5-----5--5--5--5--|
B ||--0--------0--------0-----|--0--------0--------------|


  E  E  E  E  E  E  E  E     E  E  E  E  E  E  E  E   
--------------------------|--------------------------|
--------------------------|--------------------------|
--------------------------|--------------------------|
-----5--5--------5-----5--|-----5--5-----5--5--5--5--|
-----7--7-----7--7-----7--|-----7--7-----7--7--7--7--|
--0--------0--------0-----|--0--------0--------------|


  E  E  E  E  E  E  E  E     E  E  E  E  E  E  E  E   
--------------------------|--------------------------|
--------------------------|--------------------------|
--------------------------|--------------------------|
-----7--7-----7--7-----7--|-----7--7-----7--7--7--7--|
-----8--8-----8--8-----8--|-----8--8-----8--8--8--8--|
--0--------0--------0-----|--0--------0--------------|


  E   E   E  E   E   E  E   E     E   E   E  E   E   E   E   E   
-------------------------------|--------------------------------|
-------------------------------|--------------------------------|
-------------------------------|--------------------------------|
------8---8------8---8------8--|------8---8------8---8---8---8--|
-----10--10-----10--10-----10--|-----10--10-----10--10--10--10--|
--0----------0----------0------|--0----------0------------------|


  E  E  E  E  E  E  E  E     E  E  E  E  E  E  E  E   
--------------------------|--------------------------|
--------------------------|--------------------------|
--------------------------|--------------------------|
-----3--3-----3--3-----3--|-----3--3-----3--3--3--3--|
-----5--5-----5--5-----5--|-----5--5-----5--5--5--5--|
--0--------0--------0-----|--0--------0--------------|


  E  E  E  E  E  E  E  E     E  E  E  E  E  E  E  E   
--------------------------|--------------------------|
--------------------------|--------------------------|
--------------------------|--------------------------|
-----5--5--------5-----5--|-----5--5-----5--5--5--5--|
-----7--7-----7--7-----7--|-----7--7-----7--7--7--7--|
--0--------0--------0-----|--0--------0--------------|


  E  E  E  E  E  E  E  E     E  E  E  E  E  E  E  E   
--------------------------|--------------------------|
--------------------------|--------------------------|
--------------------------|--------------------------|
-----7--7-----7--7-----7--|-----7--7-----7--7--7--7--|
-----8--8-----8--8-----8--|-----8--8-----8--8--8--8--|
--0--------0--------0-----|--0--------0--------------|


  E   E   E  E   E   E  E   E     E   E   E  E   E   E   E   E   
-------------------------------|--------------------------------|
-------------------------------|--------------------------------|
-------------------------------|--------------------------------|
------8---8------8---8------8--|------8---8------8---8---8---8--|
-----10--10-----10--10-----10--|-----10--10-----10--10--10--10--|
--0----------0----------0------|--0----------0------------------|


  E  E  E  E  E  E  E  E     E  E  E  E  E  E  E  E   
--------------------------|--------------------------|
--------------------------|--------------------------|
--------------------------|--------------------------|
-----3--3-----3--3-----3--|-----3--3-----3--3--3--3--|
-----5--5-----5--5-----5--|-----5--5-----5--5--5--5--|
--0--------0--------0-----|--0--------0--------------|


  E  E  E  E  E  E  E  E     E  E  E  E  E  E  E  E   
--------------------------|--------------------------|
--------------------------|--------------------------|
--------------------------|--------------------------|
-----5--5--------5-----5--|-----5--5-----5--5--5--5--|
-----7--7-----7--7-----7--|-----7--7-----7--7--7--7--|
--0--------0--------0-----|--0--------0--------------|


  E  E  E  E  E  E  E  E     E  E  E  E  E  E  E  E   
--------------------------|--------------------------|
--------------------------|--------------------------|
--------------------------|--------------------------|
-----7--7-----7--7-----7--|-----7--7-----7--7--7--7--|
-----8--8-----8--8-----8--|-----8--8-----8--8--8--8--|
--0--------0--------0-----|--0--------0--------------|


  E   E   E  E   E   E  E   E     E   E   E  E   E   E   E   E   
-------------------------------|--------------------------------|
-------------------------------|--------------------------------|
-------------------------------|--------------------------------|
------8---8------8---8------8--|------8---8------8---8---8---8--|
-----10--10-----10--10-----10--|-----10--10-----10--10--10--10--|
--0----------0----------0------|--0----------0------------------|


  E  E  E  E  E  E  E  E     E  E  E  E  E  E  E  E   
--------------------------|--------------------------|
--------------------------|--------------------------|
--------------------------|--------------------------|
-----3--3-----3--3-----3--|-----3--3-----3--3--3--3--|
-----5--5-----5--5-----5--|-----5--5-----5--5--5--5--|
--0--------0--------0-----|--0--------0--------------|


  E  E  E  E  E  E  E  E     E  E  E  E  E  E  E  E   
--------------------------|--------------------------|
--------------------------|--------------------------|
--------------------------|--------------------------|
-----5--5--------5-----5--|-----5--5-----5--5--5--5--|
-----7--7-----7--7-----7--|-----7--7-----7--7--7--7--|
--0--------0--------0-----|--0--------0--------------|


  E  E  E  E  E  E  E  E     E  E  E  E  E  E  E  E   
--------------------------|--------------------------|
--------------------------|--------------------------|
--------------------------|--------------------------|
-----7--7-----7--7-----7--|-----7--7-----7--7--7--7--|
-----8--8-----8--8-----8--|-----8--8-----8--8--8--8--|
--0--------0--------0-----|--0--------0--------------|


  E   E   E  E   E   E  E   E     E   E   E  E   E   E   E   E   
-------------------------------|--------------------------------|
-------------------------------|--------------------------------|
-------------------------------|--------------------------------|
------8---8------8---8------8--|------8---8------8---8---8---8--|
-----10--10-----10--10-----10--|-----10--10-----10--10--10--10--|
--0----------0----------0------|--0----------0------------------|


  H.           E  E     H        H           E  S S E  E  E  E  E  E   
---------------------|--------------------|---------------------------|
---------------------|--------------------|---------------------------|
---------------------|--------------------|---------------------------|
---------------------|--------------------|---------------------------|
--8------------8--7--|--5--------7--------|---------5--7--8-----7--5--|
---------------------|--------------------|--0--0-0----------0--------|


  E  E  E  E  E  E  E  E     E  S S E  E  E  E  E  E   
--------------------------|---------------------------|
--------------------------|---------------------------|
--------------------------|---------------------------|
--------------------------|---------------------------|
--------7--8--------7--8--|---------5--7--8-----7--5--|
--8--8--------7--7--------|--0--0-0----------0--------|


  E  S S E  E   E   E  E  E     E  S S E  E  E  E  E  E   
-----------------------------|---------------------------|
-----------------------------|---------------------------|
-----------------------------|---------------------------|
-----------------------------|---------------------------|
---------7--8------10--8--7--|---------5--7--8-----7--5--|
--8--8-8-------10------------|--0--0-0----------0--------|


  E  E  E  E  E  E  E  E     E  E  E  E  E  E  E  E   
--------------------------|--------------------------|
--------------------------|--------------------------|
--------------------------|--------------------------|
--------------------------|--------------------------|
--------7--8--------7--8--|--------3--------3-----3--|
--8--8--------7--7--------|--3--3-----3--3-----3-----|


  E  E  E  E  E  E  E  E     E  S S E  E  E  E  E  E   
--------------------------|---------------------------|
--------------------------|---------------------------|
--------------------------|---------------------------|
--------------------------|---------------------------|
--------5--------5-----5--|---------5--7--8-----7--5--|
--5--5-----5--5-----5-----|--0--0-0----------0--------|


  E  E  E  E  E  E  E  E     E  S S E  E  E  E  E  E   
--------------------------|---------------------------|
--------------------------|---------------------------|
--------------------------|---------------------------|
--------------------------|---------------------------|
--------7--8--------7--8--|---------5--7--8-----7--5--|
--8--8--------7--7--------|--0--0-0----------0--------|


  E  S S E  E   E   E  E  E     E  S S E  E  E  E  E  E   
-----------------------------|---------------------------|
-----------------------------|---------------------------|
-----------------------------|---------------------------|
-----------------------------|---------------------------|
---------7--8------10--8--7--|---------5--7--8-----7--5--|
--8--8-8-------10------------|--0--0-0----------0--------|


  E  E  E  E  E  E  E  E     E  E  E  E  E  E  E  E   
--------------------------|--------------------------|
--------------------------|--------------------------|
--------------------------|--------------------------|
--------------------------|--------------------------|
--------7--8--------7--8--|-----8--7--5-----7--5--3--|
--8--8--------7--7--------|--8-----------7-----------|


                             PM   PM                PM        PM         
  E  E  E  E  E  E  E  E     Q    Q    Q    Q       H         H          
--------------------------|----------------------|----------------------|
--------------------------|----------------------|----------------------|
--------------------------|----------------------|----------------------|
--------------------------|----------------------|----------------------|
-----5--3--1-----3--1--0--|--0----0----L----L----|--0-------------------|
--5-----------3-----------|--0----0----L----L----|--0--------12\--------|


  PM   PM                                             PM   PM              
                                 |--3--|  |--3--|                          
  Q    H        Q       H        E  E  E  E  E  E     Q    Q    Q    Q     
---------------------|-----------------------------|----------------------|
---------------------|-----------------------------|----------------------|
---------------------|-----------------------------|----------------------|
---------------------|-----------------------------|----------------------|
--0----0--------L----|--L--------------5--8--5-----|--0----0----L----L----|
--0----0--------L----|--L--------5--8-----------8--|--0----0----L----L----|


           PM PM PM PM PM PM    PM   PM              
           |--3--|  |--3--|                          
  H        E  E  E  E  E  E     Q    Q    Q    Q     
-----------------------------|----------------------|
-----------------------------|----------------------|
-----------------------------|----------------------|
-----------------------------|----------------------|
--L--------0--0--0--0--0--0--|--0----0----L----L----|
--L--------0--0--0--0--0--0--|--0----0----L----L----|


                                PM   PM              
           |--3--|  |--3--|                          
  H        E  E  E  E  E  E     Q    Q    Q    Q     
-----------------------------|----------------------|
-----------------------------|----------------------|
-----------------------------|----------------------|
-----------------------------|----------------------|
--L--------------5--8--5-----|--0----0----L----L----|
--L--------5--8-----------8--|--0----0----L----L----|


           PM PM PM PM PM PM    PM   PM             
           |--3--|  |--3--|                         
  H        E  E  E  E  E  E     Q    H        Q     
-----------------------------|---------------------|
-----------------------------|---------------------|
-----------------------------|---------------------|
-----------------------------|---------------------|
--L--------0--0--0--0--0--0--|--0----0--------L----|
--L--------0--0--0--0--0--0--|--0----0--------L----|


                                PM   PM              
           |--3--|  |--3--|                          
  H        E  E  E  E  E  E     Q    Q    Q    Q     
-----------------------------|----------------------|
-----------------------------|----------------------|
-----------------------------|----------------------|
-----------------------------|----------------------|
--L--------------5--8--5-----|--0----0----L----L----|
--L--------5--8-----------8--|--0----0----L----L----|


           PM PM PM PM PM PM    PM   PM              
           |--3--|  |--3--|                          
  H        E  E  E  E  E  E     Q    Q    Q    Q     
-----------------------------|----------------------|
-----------------------------|----------------------|
-----------------------------|----------------------|
-----------------------------|----------------------|
--L--------0--0--0--0--0--0--|--0----0----L----L----|
--L--------0--0--0--0--0--0--|--0----0----L----L----|


           |--3--|  |--3--|                               
  H        E  E  E  E  E  E     E  S S E  E  E  E  E  E   
-----------------------------|---------------------------|
-----------------------------|---------------------------|
-----------------------------|---------------------------|
-----------------------------|---------------------------|
--L--------------5--8--5-----|---------5--7--8-----7--5--|
--L--------5--8-----------8--|--0--0-0----------0--------|


  E  E  E  E  E  E  E  E     E  S S E  E  E  E  E  E   
--------------------------|---------------------------|
--------------------------|---------------------------|
--------------------------|---------------------------|
--------------------------|---------------------------|
--------7--8--------7--8--|---------5--7--8-----7--5--|
--8--8--------7--7--------|--0--0-0----------0--------|


  E  S S E  E   E   E  E  E     E  S S E  E  E  E  E  E   
-----------------------------|---------------------------|
-----------------------------|---------------------------|
-----------------------------|---------------------------|
-----------------------------|---------------------------|
---------7--8------10--8--7--|---------5--7--8-----7--5--|
--8--8-8-------10------------|--0--0-0----------0--------|


  E  E  E  E  E  E  E  E     E  E  E  E  E  E  E  E   
--------------------------|--------------------------|
--------------------------|--------------------------|
--------------------------|--------------------------|
--------------------------|--------------------------|
--------7--8--------7--8--|--------3--------3-----3--|
--8--8--------7--7--------|--3--3-----3--3-----3-----|


  E  E  E  E  E  E  E  E     E  S S E  E  E  E  E  E   
--------------------------|---------------------------|
--------------------------|---------------------------|
--------------------------|---------------------------|
--------------------------|---------------------------|
--------5--------5-----5--|---------5--7--8-----7--5--|
--5--5-----5--5-----5-----|--0--0-0----------0--------|


  E  E  E  E  E  E  E  E     E  S S E  E  E  E  E  E   
--------------------------|---------------------------|
--------------------------|---------------------------|
--------------------------|---------------------------|
--------------------------|---------------------------|
--------7--8--------7--8--|---------5--7--8-----7--5--|
--8--8--------7--7--------|--0--0-0----------0--------|


  E  S S E  E   E   E  E  E     E  S S E  E  E  E  E  E   
-----------------------------|---------------------------|
-----------------------------|---------------------------|
-----------------------------|---------------------------|
-----------------------------|---------------------------|
---------7--8------10--8--7--|---------5--7--8-----7--5--|
--8--8-8-------10------------|--0--0-0----------0--------|


  E  E  E  E  E  E  E  E     E  E  E  E  E  E  E  E   
--------------------------|--------------------------|
--------------------------|--------------------------|
--------------------------|--------------------------|
--------------------------|--------------------------|
--------7--8--------7--8--|--------3--------3-----3--|
--8--8--------7--7--------|--3--3-----3--3-----3-----|


  E  E  E  E  E  E  E  E     E  E  Q    E  E  E  E     E  E  Q    E  E  E  E   
--------------------------|-------------------------|-------------------------|
--------------------------|-------------------------|-------------------------|
--------------------------|-------------------------|-------------------------|
-----------------------8--|--L--8--8----8--8--8--8--|--L--8--8----8--8--8--0--|
--------5--------5-----8--|--L--8--8----8--8--8--8--|--L--8--8----8--8--8--0--|
--5--5-----5--5-----5--8--|--L--8--8----8--8--8--8--|--L--8--8----8--8--8--0--|


  E  E  Q    E  E  E  E     E  E  Q    E  E  E  E     E  E  Q    E  E  E  E   
-------------------------|-------------------------|-------------------------|
-------------------------|-------------------------|-------------------------|
-------------------------|----------------------5--|-----5--5----5--5--5--5--|
--L--0--0----0--0--0--0--|--L--0--0----0--0--0--5--|--L--5--5----5--5--5--5--|
--L--0--0----0--0--0--0--|--L--0--0----0--0--0--3--|--L--3--3----3--3--3--3--|
--L--0--0----0--0--0--0--|--L--0--0----0--0--0-----|-------------------------|


  E  E  Q    E  E  E  E     E  E  Q    E  E  E  E     E  E  Q    E  E  E  E   
-------------------------|-------------------------|-------------------------|
-------------------------|-------------------------|-------------------------|
--L--5--5----5--5--5-----|-------------------------|-------------------------|
--L--5--5----5--5--5--3--|--3--3--3----3--3--3--5--|--5--5--5----7--7--7--8--|
--L--3--3----3--3--3--3--|--3--3--3----3--3--3--5--|--5--5--5----7--7--7--8--|
----------------------3--|--3--3--3----3--3--3--5--|--5--5--5----7--7--7--8--|


  E  E  Q    E  E  E  E     E  E  Q    E  E  E  E     E  E  Q    E  E  E  E   
-------------------------|-------------------------|-------------------------|
-------------------------|-------------------------|-------------------------|
-------------------------|-------------------------|-------------------------|
--L--8--8----8--8--8--8--|--L--8--8----8--8--8--0--|--------0----0--0--0--0--|
--L--8--8----8--8--8--8--|--L--8--8----8--8--8--0--|--------0----0--0--0--0--|
--L--8--8----8--8--8--8--|--L--8--8----8--8--8--0--|--------0----0--0--0--0--|


  E  E  Q    E  E  E  E     E  E  Q    E  E  E  E     E  E  Q    E  E  E  E   
-------------------------|-------------------------|-------------------------|
-------------------------|-------------------------|-------------------------|
----------------------5--|-----5--5----5--5--5--5--|--L--5--5----5--5--5-----|
--L--0--0----0--0--0--5--|--L--5--5----5--5--5--5--|--L--5--5----5--5--5--3--|
--L--0--0----0--0--0--3--|--L--3--3----3--3--3--3--|--L--3--3----3--3--3--3--|
--L--0--0----0--0--0-----|-------------------------|----------------------3--|


  E  E  Q    E  E  E  E     E  E  Q    E  E  Q       Q    H        Q     
-------------------------|------------------------|---------------------|
-------------------------|------------------------|---------------------|
-------------------------|------------------------|---------------------|
--3--3--3----3--3--3--5--|--5--5--5----7--7--7----|---------------------|
--3--3--3----3--3--3--5--|--5--5--5----7--7--7----|--0----0--------L----|
--3--3--3----3--3--3--5--|--5--5--5----7--7--7----|--0----0--------L----|


           |--3--|  |--3--|                          
  H        E  E  E  E  E  E     Q    Q    Q    Q     
-----------------------------|----------------------|
-----------------------------|----------------------|
-----------------------------|----------------------|
-----------------------------|----------------------|
--L--------------5--8--5-----|--0----0----L----L----|
--L--------5--8-----------8--|--0----0----L----L----|


           |--3--|  |--3--|                          
  H        E  E  E  E  E  E     Q    Q    Q    Q     
-----------------------------|----------------------|
-----------------------------|----------------------|
-----------------------------|----------------------|
-----------------------------|----------------------|
--L--------0--0--0--0--0--0--|--0----0----L----L----|
--L--------0--0--0--0--0--0--|--0----0----L----L----|


           |--3--|  |--3--|                          
  H        E  E  E  E  E  E     Q    Q    Q    Q     
-----------------------------|----------------------|
-----------------------------|----------------------|
-----------------------------|----------------------|
-----------------------------|----------------------|
--L--------------5--8--5-----|--0----0----L----L----|
--L--------5--8-----------8--|--0----0----L----L----|


  |--3--|  |--3--|  |---3--|  |---3--|                         
  E  E  E  E  E  E  E  E   E  E  E   E     Q    H        Q     
----------------------------------------|---------------------|
----------------------------------------|---------------------|
----------------------------------------|---------------------|
----------------------------------------|---------------------|
-----------0--5--8------------0--8--10--|--0----0--------L----|
--0--5--8-----------0--8--10------------|--0----0--------L----|


           |--3--|  |--3--|                          
  H        E  E  E  E  E  E     Q    Q    Q    Q     
-----------------------------|----------------------|
-----------------------------|----------------------|
-----------------------------|----------------------|
-----------------------------|----------------------|
--L--------------5--8--5-----|--0----0----L----L----|
--L--------5--8-----------8--|--0----0----L----L----|


           |--3--|  |--3--|                          
  H        E  E  E  E  E  E     Q    Q    Q    Q     
-----------------------------|----------------------|
-----------------------------|----------------------|
-----------------------------|----------------------|
-----------------------------|----------------------|
--L--------0--0--0--0--0--0--|--0----0----L----L----|
--L--------0--0--0--0--0--0--|--0----0----L----L----|


           |--3--|  |--3--|                          
  H        E  E  E  E  E  E     Q    Q    Q    Q     
-----------------------------|----------------------|
-----------------------------|----------------------|
-----------------------------|----------------------|
-----------------------------|----------------------|
--L--------------5--8--5-----|--0----0----L----L----|
--L--------5--8-----------8--|--0----0----L----L----|


  |--3--|  |--3--|  |---3--|  |---3--|                         
  
----------------------------------------|---------------------|
----------------------------------------|---------------------|
----------------------------------------|---------------------|
----------------------------------------|---------------------|
-----------0--5--8------------0--8--10--|--0----0--------L----|
--0--5--8-----------0--8--10------------|--0----0--------L----|


           |--3--|  |--3--|                           
-----------------------------|----------------------|
-----------------------------|----------------------|
-----------------------------|----------------------|
-----------------------------|----------------------|
--L--------------5--8--5-----|--0----0----L----L----|
--L--------5--8-----------8--|--0----0----L----L----|


           |--3--|  |--3--|                          
    
-----------------------------|----------------------|
-----------------------------|----------------------|
-----------------------------|----------------------|
-----------------------------|----------------------|
--L--------0--0--0--0--0--0--|--0----0----L----L----|
--L--------0--0--0--0--0--0--|--0----0----L----L----|


           |--3--|  |--3--|                                                     

-----------------------------|----------------------|--------------------------|
-----------------------------|----------------------|--------------------------|
-----------------------------|----------------------|--------------------------|
-----------------------------|----------------------|-----------------------1--|
--L--------------5--8--5-----|--0----0----L----L----|--0--0--0--0--0--0--0--1--|
--L--------5--8-----------8--|--0----0----L----L----|--0--0--0--0--0--0--0--1--|


 
-------------------------|-------------------------|--------------------------|
-------------------------|-------------------------|--------------------------|
-------------------------|-------------------------|--------------------------|
--L-----5-----3--1-------|--------7-----5--3-------|--------8-----7-----------|
--L-------------------3--|--L-------------------5--|--L-----------------8-----|
--L--1-----1----------3--|--L--3-----3----------5--|--L--5-----5-----5-----5--|


  
------------------------|-------------------------|-------------------------|
------------------------|-------------------------|-------------------------|
------------------------|-------------------------|-------------------------|
--8-----7------------1--|--L-----5-----3--1-------|--------7-----5--3-------|
--------------8------1--|--L-------------------3--|--L-------------------5--|
-----5-----5---------1--|--L--1-----1----------3--|--L--3-----3----------5--|

--------------------------|-------------------------|
--------------------------|-------------------------|
--------------------------|----------------------12-|
--------8-----7-----------|--8-----7----------------|
--L-----------------8-----|--------------8----------|
--L--5-----5-----5-----5--|-----5-----5-------------|

Solo ** There is a harmony (a 3rd below what is transcribed)
----------------------------|----------------------------|
----------------------------|----------------------------|
----------------------------|----------------------------|
-12--------12--10--12--14---|---L--------14--12--14--15--|
----------------------------|----------------------------|
----------------------------|----------------------------|
----------------------------|----------------------------|


   H         E   E   E   E      E   E   E   E   E   E   E   E   
----------------------------|----------------------------------|
----------------------------|----------------------------------|
---L--------17--15--17--19--|---L--17--15---L--17--15--14--15--|
----------------------------|----------------------------------|
----------------------------|----------------------------------|
----------------------------|----------------------------------|


   H         E   E   E   E      H         H            W                 
----------------------------|----------------------|--------------------|
----------------------------|----------------------|--------------------|
---L--------15--17--15--14--|---L--------10--------|--12----------------|
----------------------------|----------------------|--------------------|
----------------------------|----------------------|--------------------|
----------------------------|----------------------|--------------------|


   H.            E   E      E   E   E   E   E   E   E   E   
------------------------|------------------18--------------|
------------------------|--------------16------16----------|
---L-------------L------|----------15--------------15------|
------------------------|------15--------------------------|
--------------------18--|---L--------------------------20--|
------------------------|----------------------------------|


   E   E   E   E   E   E   E   E      E   E   E   E   E   E   E   E   
------------------20--------------|------------------22----------22--|
--------------18------18----------|--------------20------20----------|
----------17--------------17------|----------19--------------19------|
------17--------------------------|------19--------------------------|
---L--------------------------22--|---L------------------------------|
----------------------------------|----------------------------------|


   E   E    Q     Q      Q     
---L---Lb--22----22b----22----|
------------------------------|
------------------------------|
------------------------------|
------------------------------|
------------------------------|


   S  S  S  S  S  S  S  S  S  S  S  S  S  S  S  S  
--------------------------------------------------|
--------------------------------------------------|
--17-15-17-15-17-15-17-15-17-15-17-15-17-15-17-15-|
--------------------------------------------------|
--------------------------------------------------|
--------------------------------------------------|


   S  S  S  S  S  S  S  S  S  S  S  S  S  S  S  S  
--------------------------------------------------|
--------------------------------------------------|
--14-15-14-15-14-15-14-15-10-10-10-10-10-10-10-10-|
--------------------------------------------------|
--------------------------------------------------|
--------------------------------------------------|


   S  S  S  S  Q     Q     Q        W                      W                 
--------------------------------|----------------------|--------------------|
--------------------------------|--18br----------------|--18----------------|
--12-12-12-12-14----15----17----|----------------------|--------------------|
--------------------------------|----------------------|--------------------|
--------------------------------|----------------------|--------------------|
--------------------------------|----------------------|--------------------|



  E  E  Q    E  E  E  E     E  E  Q    E  E  E  E     E  E  Q    E  E  E  E   
-------------------------|-------------------------|-------------------------|
-------------------------|-------------------------|-------------------------|
-------------------------|-------------------------|-------------------------|
--L--8--8----8--8--8--8--|--L--8--8----8--8--8--0--|--L--0--0----0--0--0--0--|
--L--8--8----8--8--8--8--|--L--8--8----8--8--8--0--|--L--0--0----0--0--0--0--|
--L--8--8----8--8--8--8--|--L--8--8----8--8--8--0--|--L--0--0----0--0--0--0--|


  E  E  Q    E  E  E  E     E  E  Q    E  E  E  E     E  E  Q    E  E  E  E   
-------------------------|-------------------------|-------------------------|
-------------------------|-------------------------|-------------------------|
----------------------5--|-----5--5----5--5--5--5--|--L--5--5----5--5--5-----|
--L--0--0----0--0--0--5--|--L--5--5----5--5--5--5--|--L--5--5----5--5--5--3--|
--L--0--0----0--0--0--3--|--L--3--3----3--3--3--3--|--L--3--3----3--3--3--3--|
--L--0--0----0--0--0-----|-------------------------|----------------------3--|


  E  E  Q    E  E  E  E     E  E  Q    E  E  E  E     E  E  Q    E  E  E  E   
-------------------------|-------------------------|-------------------------|
-------------------------|-------------------------|-------------------------|
-------------------------|-------------------------|-------------------------|
--3--3--3----3--3--3--5--|--5--5--5----7--7--7--8--|--L--8--8----8--8--8--8--|
--3--3--3----3--3--3--5--|--5--5--5----7--7--7--8--|--L--8--8----8--8--8--8--|
--3--3--3----3--3--3--5--|--5--5--5----7--7--7--8--|--L--8--8----8--8--8--8--|


  E  E  Q    E  E  E  E     E  E  Q    E  E  E  E     E  E  Q    E  E  E  E   
-------------------------|-------------------------|-------------------------|
-------------------------|-------------------------|-------------------------|
-------------------------|-------------------------|----------------------5--|
--L--8--8----8--8--8--0--|--------0----0--0--0--0--|--L--0--0----0--0--0--5--|
--L--8--8----8--8--8--0--|--------0----0--0--0--0--|--L--0--0----0--0--0--3--|
--L--8--8----8--8--8--0--|--------0----0--0--0--0--|--L--0--0----0--0--0-----|


  E  E  Q    E  E  E  E     E  E  Q    E  E  E  E     E  E  Q    E  E  E  E   
-------------------------|-------------------------|-------------------------|
-------------------------|-------------------------|-------------------------|
-----5--5----5--5--5--5--|--L--5--5----5--5--5-----|-------------------------|
--L--5--5----5--5--5--5--|--L--5--5----5--5--5--3--|--3--3--3----3--3--3--5--|
--L--3--3----3--3--3--3--|--L--3--3----3--3--3--3--|--3--3--3----3--3--3--5--|
-------------------------|----------------------3--|--3--3--3----3--3--3--5--|


  E  E  Q    E  E  Q         W                   Q.     Q.      Q     
------------------------||--------------------|----------------------|
------------------------||--------------------|----------------------|
------------------------||*-------------------|----------------------|
--5--5--5----7--7--7----||*-------------------|----------------------|
--5--5--5----7--7--7----||---8----------------|--7------8------10----|
--5--5--5----7--7--7----||--------------------|----------------------|


  W                   Q.     Q.      Q       W                 
-------------------|----------------------|-------------------|
-------------------|----------------------|-------------------|
-------------------|----------------------|-------------------|
-------------------|----------------------|-------------------|
--8----------------|--7------8------12----|--8----------------|
-------------------|----------------------|-------------------|


  Q.     Q.      Q       W                   Q.     Q.      Q     
----------------------|-------------------|----------------------|
----------------------|-------------------|----------------------|
----------------------|-------------------|----------------------|
----------------------|-------------------|----------------------|
--7------8------10----|--8----------------|--7------8------12----|
----------------------|-------------------|----------------------|


  W                   Q.     Q.      Q       W                 
-------------------|----------------------|-------------------|
-------------------|----------------------|-------------------|
-------------------|----------------------|-------------------|
-------------------|----------------------|-------------------|
--8----------------|--7------8------10----|--8----------------|
-------------------|----------------------|-------------------|


  Q.     Q.      Q       W                   Q.     Q.      Q     
----------------------|-------------------|----------------------|
----------------------|-------------------|----------------------|
----------------------|-------------------|----------------------|
----------------------|-------------------|----------------------|
--7------8------12----|--8----------------|--7------8------10----|
----------------------|-------------------|----------------------|


  W                   Q.     Q.      Q                        
-------------------|-----------------------||-------|-------||
-------------------|-----------------------||-------|-------||
-------------------|----------------------*||-------|-------||
-------------------|----------------------*||-------|-------||
--8----------------|--7------8------12-----||-------|-------||
-------------------|-----------------------||-------|-------||


                       Headfirst From A Hangman's Noose                         


                                                         I Killed the Prom Queen
Kevin
Tune to Drop B.



      W                   W                   W                 
C#||-------------------|-------------------|-------------------|
G#||-------------------|-------------------|-------------------|
E ||-------------------|-------------------|-------------------|
B ||--0----------------|--L----------------|--L----------------|
F#||--0----------------|--L----------------|--L----------------|
B ||--0----------------|--L----------------|--L----------------|


  W                   E  E  H.              W                 
-------------------|---------------------|-------------------|
-------------------|---------------------|-------------------|
-------------------|---------------------|-------------------|
--L----------------|--0------------------|-------------------|
--L----------------|--0------------------|-------------------|
--L----------------|--0------------------|-------------------|


                                          E  E  E  E  E  E  E  E   
-------------------|-------------------|--------------------------|
-------------------|-------------------|--------------------------|
-------------------|-------------------|--------------------------|
-------------------|-------------------|--------------------------|
-------------------|-------------------|-----7--5-----3--5-----7--|
-------------------|-------------------|--0--------0--------0-----|


  E  E  E  E  E  E  E  E     E  E  E  E  E  E  E  E   
--------------------------|--------------------------|
--------------------------|--------------------------|
--------------------------|--------------------------|
-----------------------3--|--------------------------|
-----5--------3--5--7-----|-----8--7-----5--7-----8--|
--0-----0--0--------------|--0--------0--------0-----|


  E  E  E  E  E  E  E  E     E   E  E  E  E  E  E   E   
--------------------------|----------------------------|
--------------------------|----------------------------|
--------------------------|----------------------------|
-----------------------5--|----------------------------|
-----7--------5--7--8-----|-----10--8-----7--8-----10--|
--0-----0--0--------------|--0---------0--------0------|


  E  E  E  E  E  E   E  E     E   E   E  E   E   E  E   E   
---------------------------|-------------------------------|
---------------------------|-------------------------------|
---------------------------|-------------------------------|
------------------------7--|-------------------------------|
-----8--------7--8--10-----|-----12--10-----10--12-----12--|
--0-----0--0---------------|--0----------0----------0------|


  E   E  E  E   E   E   E   E     E  E  E  E  E  E  E  E   
-------------------------------|--------------------------|
-------------------------------|--------------------------|
-------------------------------|--------------------------|
---------------------------10--|--------------------------|
-----10--------10--12--13------|-----7--5-----3--5-----7--|
--0------0--0------------------|--0--------0--------0-----|


  E  E  E  E  E  E  E  E     E  E  E  E  E  E  E  E   
--------------------------|--------------------------|
--------------------------|--------------------------|
--------------------------|--------------------------|
-----------------------3--|--------------------------|
-----5--------3--5--7-----|-----8--7-----5--7-----8--|
--0-----0--0--------------|--0--------0--------0-----|


  E  E  E  E  E  E  E  E     E   E  E  E  E  E  E   E   
--------------------------|----------------------------|
--------------------------|----------------------------|
--------------------------|----------------------------|
-----------------------5--|----------------------------|
-----7--------5--7--8-----|-----10--8-----7--8-----10--|
--0-----0--0--------------|--0---------0--------0------|


  E  E  E  E  E  E   E  E     E   E   E  E   E   E  E   E   
---------------------------|-------------------------------|
---------------------------|-------------------------------|
---------------------------|-------------------------------|
------------------------7--|-------------------------------|
-----8--------7--8--10-----|-----12--10-----10--12-----12--|
--0-----0--0---------------|--0----------0----------0------|


  E   E  E  E   E   E   E   E     E  E  E  E  E  E  E  E   
-------------------------------|--------------------------|
-------------------------------|--------------------------|
-------------------------------|--------------------------|
---------------------------10--|--------------------------|
-----10--------10--12--13------|-----7--5-----3--5-----7--|
--0------0--0------------------|--0--------0--------0-----|


  E  E  E  E  E  E  E  E     E  E  E  E  E  E  E  E   
--------------------------|--------------------------|
--------------------------|--------------------------|
--------------------------|--------------------------|
-----------------------3--|--------------------------|
-----5--------3--5--7-----|-----8--7-----5--7-----8--|
--0-----0--0--------------|--0--------0--------0-----|


  E  E  E  E  E  E  E  E     E   E  E  E  E  E  E   E   
--------------------------|----------------------------|
--------------------------|----------------------------|
--------------------------|----------------------------|
-----------------------5--|----------------------------|
-----7--------5--7--8-----|-----10--8-----7--8-----10--|
--0-----0--0--------------|--0---------0--------0------|


  E  E  E  E  E  E   E  E     E   E   E  E   E   E  E   E   
---------------------------|-------------------------------|
---------------------------|-------------------------------|
---------------------------|-------------------------------|
------------------------7--|-------------------------------|
-----8--------7--8--10-----|-----12--10-----10--12-----12--|
--0-----0--0---------------|--0----------0----------0------|


  E   E  E  E   E   E   E   E     H.           E  E     H        H         
-------------------------------|---------------------|--------------------|
-------------------------------|---------------------|--------------------|
-------------------------------|---------------------|--------------------|
---------------------------10--|--7------------7--5--|--3--------5--------|
-----10--------10--12--13------|---------------------|--------------------|
--0------0--0------------------|---------------------|--------------------|


  E  S S E  E  E  E  E  E     E  E  E  E  E  E  E  E   
---------------------------|--------------------------|
---------------------------|--------------------------|
---------------------------|--------------------------|
---------------------------|--------------------------|
---------5--7--8-----7--5--|--------7--8--------7--8--|
--0--0-0----------0--------|--8--8--------7--7--------|


  E  S S E  E  E  E  E  E     E  S S E  E   E   E  E  E   
---------------------------|-----------------------------|
---------------------------|-----------------------------|
---------------------------|-----------------------------|
---------------------------|-----------------------------|
---------5--7--8-----7--5--|---------7--8------10--8--7--|
--0--0-0----------0--------|--8--8-8-------10------------|


  E  S S E  E  E  E  E  E     E  E  E  E  E  E  E  E   
---------------------------|--------------------------|
---------------------------|--------------------------|
---------------------------|--------------------------|
---------------------------|--------------------------|
---------5--7--8-----7--5--|--------7--8--------7--8--|
--0--0-0----------0--------|--8--8--------7--7--------|


  E  E  E  E  E  E  E  E     E  E  E  E  E  E  E  E   
--------------------------|--------------------------|
--------------------------|--------------------------|
--------------------------|--------------------------|
--------------------------|--------------------------|
--------7--------7-----7--|--------8--------8-----8--|
--3--3-----3--3-----3-----|--5--5-----5--5-----5-----|


  E  S S E   E   E  E   E  E     E  E   E   E  E  E   E   E   
------------------------------|------------------------------|
------------------------------|------------------------------|
------------------------------|------------------------------|
------------------------------|------------------------------|
---------8--10--12-----10--8--|--------10--12--------10--12--|
--0--0-0------------0---------|--8--8----------7--7----------|


  E  S S E   E   E  E   E  E     E  E   E   E   E   E   E   E   
------------------------------|--------------------------------|
------------------------------|--------------------------------|
------------------------------|--------------------------------|
------------------------------|--------------------------------|
---------8--10--12-----10--8--|--------10--12------13--12--10--|
--0--0-0------------0---------|--8--8----------10--------------|


  E  S S E   E   E  E   E  E     E  E   E   E  E  E   E   E               
------------------------------|------------------------------|-----|-----|
------------------------------|------------------------------|-----|-----|
------------------------------|------------------------------|-----|-----|
------------------------------|------------------------------|-----|-----|
---------8--10--12-----10--8--|--------10--12--------10--12--|-----|-----|
--0--0-0------------0---------|--8--8----------7--7----------|-----|-----|


  PM   PM       PM      PM                     PM   PM        PM PM PM  
  Q    H        Q       H         H            Q    Q    Q    S  S  E   
---------------------|----------------------|--------------------------|
---------------------|----------------------|--------------------------|
---------------------|----------------------|--------------------------|
---------------------|----------------------|--------------------------|
--0----0--------0----|--0-------------------|--0----0---------0--0--0--|
--0----0--------0----|--0--------12\--------|--0----0---------0--0--0--|


  PM                               PM   PM       PM PM PM  
           |---3--|   |---3--|                             
  H        E   E  E   E  E   E     Q    H        S  S  E   
--------------------------------|-------------------------|
--------------------------------|-------------------------|
--------------------------------|-------------------------|
--------------------------------|-------------------------|
--0---------------8--12--8------|--0----0--------0--0--0--|
--0--------8--12------------10--|--0----0--------0--0--0--|


  PM       PM PM PM PM PM PM    PM   PM       PM PM PM  
           |--3--|  |--3--|                             
  H        E  E  E  E  E  E     Q    H        S  S  E   
-----------------------------|-------------------------|
-----------------------------|-------------------------|
-----------------------------|-------------------------|
-----------------------------|-------------------------|
--0--------0--0--0--0--0--0--|--0----0--------0--0--0--|
--0--------0--0--0--0--0--0--|--0----0--------0--0--0--|


  PM                               PM   PM       PM PM PM  
           |---3--|   |---3--|                             
  H        E   E  E   E  E   E     Q    H        S  S  E   
--------------------------------|-------------------------|
--------------------------------|-------------------------|
--------------------------------|-------------------------|
--------------------------------|-------------------------|
--0---------------8--12--8------|--0----0--------0--0--0--|
--0--------8--12------------10--|--0----0--------0--0--0--|


  PM       PM PM PM PM PM PM    PM   PM        PM PM PM  
           |--3--|  |--3--|                              
  H        E  E  E  E  E  E     Q    Q    Q    S  S  E   
-----------------------------|--------------------------|
-----------------------------|--------------------------|
-----------------------------|--------------------------|
-----------------------------|--------------------------|
--0--------0--0--0--0--0--0--|--0----0---------0--0--0--|
--0--------0--0--0--0--0--0--|--0----0---------0--0--0--|


  PM                               PM   PM       PM PM PM  
           |---3--|   |---3--|                             
  H        E   E  E   E  E   E     Q    H        S  S  E   
--------------------------------|-------------------------|
--------------------------------|-------------------------|
--------------------------------|-------------------------|
--------------------------------|-------------------------|
--0---------------8--12--8------|--0----0--------0--0--0--|
--0--------8--12------------10--|--0----0--------0--0--0--|


  PM       PM PM PM PM PM PM    PM   PM       PM PM PM  
           |--3--|  |--3--|                             
  H        E  E  E  E  E  E     Q    H        S  S  E   
-----------------------------|-------------------------|
-----------------------------|-------------------------|
-----------------------------|-------------------------|
-----------------------------|-------------------------|
--0--------0--0--0--0--0--0--|--0----0--------0--0--0--|
--0--------0--0--0--0--0--0--|--0----0--------0--0--0--|


  PM                                                         
           |---3--|   |---3--|                               
  H        E   E  E   E  E   E     E  S S E  E  E  E  E  E   
--------------------------------|---------------------------|
--------------------------------|---------------------------|
--------------------------------|---------------------------|
--------------------------------|---------------------------|
--0---------------8--12--8------|---------5--7--8-----7--5--|
--0--------8--12------------10--|--0--0-0----------0--------|


  E  E  E  E  E  E  E  E     E  S S E  E  E  E  E  E   
--------------------------|---------------------------|
--------------------------|---------------------------|
--------------------------|---------------------------|
--------------------------|---------------------------|
--------7--8--------7--8--|---------5--7--8-----7--5--|
--8--8--------7--7--------|--0--0-0----------0--------|


  E  S S E  E   E   E  E  E     E  S S E  E  E  E  E  E   
-----------------------------|---------------------------|
-----------------------------|---------------------------|
-----------------------------|---------------------------|
-----------------------------|---------------------------|
---------7--8------10--8--7--|---------5--7--8-----7--5--|
--8--8-8-------10------------|--0--0-0----------0--------|


  E  E  E  E  E  E  E  E     E  E  E  E  E  E  E  E   
--------------------------|--------------------------|
--------------------------|--------------------------|
--------------------------|--------------------------|
--------------------------|--------------------------|
--------7--8--------7--8--|--------7--------7-----7--|
--8--8--------7--7--------|--3--3-----3--3-----3-----|


  E  E  E  E  E  E  E  E     E  S S E   E   E  E   E  E   
--------------------------|------------------------------|
--------------------------|------------------------------|
--------------------------|------------------------------|
--------------------------|------------------------------|
--------8--------8-----8--|---------8--10--12-----10--8--|
--5--5-----5--5-----5-----|--0--0-0------------0---------|


  E  E   E   E  E  E   E   E     E  S S E   E   E  E   E  E   
------------------------------|------------------------------|
------------------------------|------------------------------|
------------------------------|------------------------------|
------------------------------|------------------------------|
--------10--12--------10--12--|---------8--10--12-----10--8--|
--8--8----------7--7----------|--0--0-0------------0---------|


  E  E   E   E   E   E   E   E     E  S S E   E   E  E   E  E   
--------------------------------|------------------------------|
--------------------------------|------------------------------|
--------------------------------|------------------------------|
--------------------------------|------------------------------|
--------10--12------13--12--10--|---------8--10--12-----10--8--|
--8--8----------10--------------|--0--0-0------------0---------|


  E  E   E   E  E  E   E   E     E  E  E  E  E  E  E  E   
------------------------------|--------------------------|
------------------------------|--------------------------|
------------------------------|--------------------------|
------------------------------|--------------------------|
--------10--12--------10--12--|--------7--------7-----7--|
--8--8----------7--7----------|--3--3-----3--3-----3-----|


  E  E  E  E  E  E  E   E      E   E   Q     E   E   E   E   
---------------------------|--------------------------------|
---------------------------|--------------------------------|
-----------------------10--|---L--10--10----10--10--10--10--|
---------------------------|--------------------------------|
--------8--------8------8--|---L---8---8-----8---8---8---8--|
--5--5-----5--5-----5------|--------------------------------|


  E  E  E  E   E   E   E   E      E   E   Q     E   E   E   E   
------------------------------|--------------------------------|
------------------------------|--------------------------------|
--9--9--9--9--10--10--10--10--|---L--10--10----10--10--10--10--|
------------------------------|--------------------------------|
--7--7--7--7---8---8---8---8--|---L---8---8-----8---8---8---8--|
------------------------------|--------------------------------|


  E  E  E  E   Q     Q        E   E   Q     E   E   E   E   
--------------------------|--------------------------------|
--------------------------|--------------------------------|
--9--9--9--9--10----14----|--10--10--10----10--10--10--10--|
--------------------------|--------------------------------|
--7--7--7--7---8----12----|---8---8---8-----8---8---8---8--|
--------------------------|--------------------------------|


  E  E  E  E   E   E   E   E     E  E  E  E  E  E  E  E   
------------------------------|--------------------------|
------------------------------|--------------------------|
--9--9--9--9--10--10--10--10--|--5--5--5--5--5--5--5--7--|
------------------------------|--------------------------|
--7--7--7--7---8---8---8---8--|--3--3--3--3--3--3--3--5--|
------------------------------|--------------------------|


  E  E  Q    E  E  E   E      E   E   Q     E   E   E   E   
--------------------------|--------------------------------|
--------------------------|--------------------------------|
--7--7--7----9--9--9--10--|---L--10--10----10--10--10--10--|
--------------------------|--------------------------------|
--5--5--5----7--7--7---8--|---L---8---8-----8---8---8---8--|
--------------------------|--------------------------------|


  E  E  E  E   E   E   E   E      E   E   Q     E   E   E   E   
------------------------------|--------------------------------|
------------------------------|--------------------------------|
--9--9--9--9--10--10--10--10--|---L--10--10----10--10--10--10--|
------------------------------|--------------------------------|
--7--7--7--7---8---8---8---8--|---L---8---8-----8---8---8---8--|
------------------------------|--------------------------------|


  E  E  E  E   Q     Q        E   E   Q     E   E   E   E   
--------------------------|--------------------------------|
--------------------------|--------------------------------|
--9--9--9--9--10----14----|--10--10--10----10--10--10--10--|
--------------------------|--------------------------------|
--7--7--7--7---8----12----|---8---8---8-----8---8---8---8--|
--------------------------|--------------------------------|


  E  E  E  E   E   E   E   E     E  E  E  E  E  E  E  E   
------------------------------|--------------------------|
------------------------------|--------------------------|
--9--9--9--9--10--10--10--10--|--5--5--5--5--5--5--5--7--|
------------------------------|--------------------------|
--7--7--7--7---8---8---8---8--|--3--3--3--3--3--3--3--5--|
------------------------------|--------------------------|


                                                          |---3--|   |---3--|   
  E  E  Q    E  E  Q       Q    H        Q       H        E   E  E   E  E   E   
------------------------|---------------------|--------------------------------|
------------------------|---------------------|--------------------------------|
--7--7--7----9--9--9----|---------------------|--------------------------------|
------------------------|---------------------|--------------------------------|
--5--5--5----7--7--7----|--0----0--------0----|--0---------------8--12--8------|
------------------------|--0----0--------0----|--0--------8--12------------10--|


                                 |--3--|  |--3--|                         
  Q    H        Q       H        E  E  E  E  E  E     Q    H        Q     
---------------------|-----------------------------|---------------------|
---------------------|-----------------------------|---------------------|
---------------------|-----------------------------|---------------------|
---------------------|-----------------------------|---------------------|
--0----0--------0----|--0--------0--0--0--0--0--0--|--0----0--------0----|
--0----0--------0----|--0--------0--0--0--0--0--0--|--0----0--------0----|


           |---3--|   |---3--|                         
  H        E   E  E   E  E   E     Q    H        Q     
--------------------------------|---------------------|
--------------------------------|---------------------|
--------------------------------|---------------------|
--------------------------------|---------------------|
--0---------------8--12--8------|--0----0--------0----|
--0--------8--12------------10--|--0----0--------0----|


  |---3--|  |---3--|  |---3---|  |---3---|                         
  E  E   E  E  E   E  E   E   E  E   E   E     Q    H        Q     
--------------------------------------------|---------------------|
--------------------------------------------|---------------------|
--------------------------------------------|---------------------|
--------------------------------------------|---------------------|
------------0--8--12-------------0--12--13--|--0----0--------0----|
--0--8--12------------0--12--13-------------|--0----0--------0----|


           |---3--|   |---3--|                         
  H        E   E  E   E  E   E     Q    H        Q     
--------------------------------|---------------------|
--------------------------------|---------------------|
--------------------------------|---------------------|
--------------------------------|---------------------|
--0---------------8--12--8------|--0----0--------0----|
--0--------8--12------------10--|--0----0--------0----|


           |--3--|  |--3--|                         
  H        E  E  E  E  E  E     Q    H        Q     
-----------------------------|---------------------|
-----------------------------|---------------------|
-----------------------------|---------------------|
-----------------------------|---------------------|
--0--------0--0--0--0--0--0--|--0----0--------0----|
--0--------0--0--0--0--0--0--|--0----0--------0----|


           |---3--|   |---3--|                         
  H        E   E  E   E  E   E     Q    H        Q     
--------------------------------|---------------------|
--------------------------------|---------------------|
--------------------------------|---------------------|
--------------------------------|---------------------|
--0---------------8--12--8------|--0----0--------0----|
--0--------8--12------------10--|--0----0--------0----|


  |---3--|  |---3--|  |---3---|  |---3---|                         
  E  E   E  E  E   E  E   E   E  E   E   E     Q    H        Q     
--------------------------------------------|---------------------|
--------------------------------------------|---------------------|
--------------------------------------------|---------------------|
--------------------------------------------|---------------------|
------------0--8--12-------------0--12--13--|--0----0--------0----|
--0--8--12------------0--12--13-------------|--0----0--------0----|


           |---3--|   |---3--|                         
  H        E   E  E   E  E   E     Q    H        Q     
--------------------------------|---------------------|
--------------------------------|---------------------|
--------------------------------|---------------------|
--------------------------------|---------------------|
--0---------------8--12--8------|--0----0--------0----|
--0--------8--12------------10--|--0----0--------0----|


           |--3--|  |--3--|                         
  H        E  E  E  E  E  E     Q    H        Q     
-----------------------------|---------------------|
-----------------------------|---------------------|
-----------------------------|---------------------|
-----------------------------|---------------------|
--0--------0--0--0--0--0--0--|--0----0--------0----|
--0--------0--0--0--0--0--0--|--0----0--------0----|


           |---3--|   |---3--|                         
  H        E   E  E   E  E   E     Q    H        Q     
--------------------------------|---------------------|
--------------------------------|---------------------|
--------------------------------|---------------------|
--------------------------------|---------------------|
--0---------------8--12--8------|--0----0--------0----|
--0--------8--12------------10--|--0----0--------0----|


  E  E  E  E  E  E  E  E     H.           E  E     H.           E  E   
--------------------------|---------------------|---------------------|
--------------------------|---------------------|---------------------|
--------------------------|---------------------|---------------------|
-----------------------1--|--L------------L--3--|--L------------L--5--|
-----------------------1--|--L------------L--3--|--L------------L--5--|
--0--0--0--0--0--0--0--1--|--L------------L--3--|--L------------L--5--|


  W                   H.           E  E     H.           E  E   
-------------------|---------------------|---------------------|
-------------------|---------------------|---------------------|
-------------------|---------------------|---------------------|
--L----------------|--L------------L--1--|--L------------L--3--|
--L----------------|--L------------L--1--|--L------------L--3--|
--L----------------|--L------------L--1--|--L------------L--3--|


  H.           E  E     W                   H.           E  E   
---------------------|-------------------|---------------------|
---------------------|-------------------|---------------------|
---------------------|-------------------|---------------------|
--L------------L--5--|--L----------------|--L------------L--1--|
--L------------L--5--|--L----------------|--L------------L--1--|
--L------------L--5--|--L----------------|--L------------L--1--|


  E  E  E  E  E  Q    E     E  E  E  E  E  Q    E     E  E  E  E  E  E  E  E   
-------------------------|-------------------------|--------------------------|
-------------------------|-------------------------|--------------------------|
-------------------------|-------------------------|--------------------------|
--L-----5-----3--1-------|--------7-----5--3-------|--------8-----7-----------|
--L-------------------3--|--L-------------------5--|--L-----------------8-----|
--L--1-----1----------3--|--L--3-----3----------5--|--L--5-----5-----5-----5--|


  E  E  E  E  Q.     E     E  E  E  E  E  Q    E     E  E  E  E  E  Q    E   
------------------------|-------------------------|-------------------------|
------------------------|-------------------------|-------------------------|
------------------------|-------------------------|-------------------------|
--8-----7------------1--|--L-----5-----3--1-------|--------7-----5--3-------|
--------------8------1--|--L-------------------3--|--L-------------------5--|
-----5-----5---------1--|--L--1-----1----------3--|--L--3-----3----------5--|


  E  E  E  E  E  E  E  E     E  E  E  E  Q.     E     E  E  E  E  E  Q    E   
--------------------------|------------------------|-------------------------|
--------------------------|------------------------|-------------------------|
--------------------------|------------------------|-------------------------|
--------8-----7-----------|--8-----7------------1--|--L-----5-----3--1-------|
--L-----------------8-----|--------------8------1--|--L-------------------3--|
--L--5-----5-----5-----5--|-----5-----5---------1--|--L--1-----1----------3--|


  E  E  E  E  E  Q    E     E  E  E  E  E  E  E  E     E  E  E  E  Q.     E   
-------------------------|--------------------------|------------------------|
-------------------------|--------------------------|------------------------|
-------------------------|--------------------------|------------------------|
--------7-----5--3-------|--------8-----7-----------|--8-----7------------1--|
--L-------------------5--|--L-----------------8-----|--------------8------1--|
--L--3-----3----------5--|--L--5-----5-----5-----5--|-----5-----5---------1--|


  E  E  E  E  E  Q    E     E  E  E  E  E  Q    E     E  E  E  E  E  E  E  E   
-------------------------|-------------------------|--------------------------|
-------------------------|-------------------------|--------------------------|
-------------------------|-------------------------|--------------------------|
--L-----5-----3--1-------|--------7-----5--3-------|--------8-----7-----------|
--L-------------------3--|--L-------------------5--|--L-----------------8-----|
--L--1-----1----------3--|--L--3-----3----------5--|--L--5-----5-----5-----5--|


  E  E  E  E  Q.     E      E   E   Q     E   E   E   E   
------------------------|--------------------------------|
------------------------|--------------------------------|
------------------------|---L--10--10----10--10--10--10--|
--8-----7------------8--|--------------------------------|
--------------8------8--|---L---8---8-----8---8---8---8--|
-----5-----5---------8--|--------------------------------|


  E  E  E  E   E   E   E   E      E   E   Q     E   E   E   E   
------------------------------|--------------------------------|
------------------------------|--------------------------------|
--9--9--9--9--10--10--10--10--|---L--10--10----10--10--10--10--|
------------------------------|--------------------------------|
--7--7--7--7---8---8---8---8--|---L---8---8-----8---8---8---8--|
------------------------------|--------------------------------|


  E  E  E  E   Q     Q        E   E   Q     E   E   E   E   
--------------------------|--------------------------------|
--------------------------|--------------------------------|
--9--9--9--9--10----14----|--10--10--10----10--10--10--10--|
--------------------------|--------------------------------|
--7--7--7--7---8----12----|---8---8---8-----8---8---8---8--|
--------------------------|--------------------------------|


  E  E  E  E   E   E   E   E     E  E  E  E  E  E  E  E   
------------------------------|--------------------------|
------------------------------|--------------------------|
--9--9--9--9--10--10--10--10--|--5--5--5--5--5--5--5--7--|
------------------------------|--------------------------|
--7--7--7--7---8---8---8---8--|--3--3--3--3--3--3--3--5--|
------------------------------|--------------------------|


  E  E  Q    E  E  E   E      E   E   Q     E   E   E   E   
--------------------------|--------------------------------|
--------------------------|--------------------------------|
--7--7--7----9--9--9--10--|---L--10--10----10--10--10--10--|
--------------------------|--------------------------------|
--5--5--5----7--7--7---8--|---L---8---8-----8---8---8---8--|
--------------------------|--------------------------------|


  E  E  E  E   E   E   E   E      E   E   Q     E   E   E   E   
------------------------------|--------------------------------|
------------------------------|--------------------------------|
--9--9--9--9--10--10--10--10--|---L--10--10----10--10--10--10--|
------------------------------|--------------------------------|
--7--7--7--7---8---8---8---8--|---L---8---8-----8---8---8---8--|
------------------------------|--------------------------------|


  E  E  E  E   Q     Q        E   E   Q     E   E   E   E   
--------------------------|--------------------------------|
--------------------------|--------------------------------|
--9--9--9--9--10----14----|--10--10--10----10--10--10--10--|
--------------------------|--------------------------------|
--7--7--7--7---8----12----|---8---8---8-----8---8---8---8--|
--------------------------|--------------------------------|


  E  E  E  E   E   E   E   E     E  E  E  E  E  E  E  E   
------------------------------|--------------------------|
------------------------------|--------------------------|
--9--9--9--9--10--10--10--10--|--5--5--5--5--5--5--5--7--|
------------------------------|--------------------------|
--7--7--7--7---8---8---8---8--|--3--3--3--3--3--3--3--5--|
------------------------------|--------------------------|


  E  E  Q    E  E  Q         W                   Q.     Q.     Q     
------------------------||--------------------|---------------------|
------------------------||--------------------|---------------------|
--7--7--7----9--9--9----||*-------------------|---------------------|
------------------------||*--7----------------|--5------7------8----|
--5--5--5----7--7--7----||--------------------|---------------------|
------------------------||--------------------|---------------------|


  W                   Q.     Q.      Q       W                 
-------------------|----------------------|-------------------|
-------------------|----------------------|-------------------|
-------------------|----------------------|-------------------|
--7----------------|--5------7------10----|--7----------------|
-------------------|----------------------|-------------------|
-------------------|----------------------|-------------------|


  Q.     Q.     Q       W                   Q.     Q.      Q     
---------------------|-------------------|----------------------|
---------------------|-------------------|----------------------|
---------------------|-------------------|----------------------|
--5------7------8----|--7----------------|--5------7------10----|
---------------------|-------------------|----------------------|
---------------------|-------------------|----------------------|


  W                   Q.     Q.     Q       W                 
-------------------|---------------------|-------------------|
-------------------|---------------------|-------------------|
-------------------|---------------------|-------------------|
--7----------------|--5------7------8----|--7----------------|
-------------------|---------------------|-------------------|
-------------------|---------------------|-------------------|


  Q.     Q.      Q       W                   Q.     Q.     Q     
----------------------|-------------------|---------------------|
----------------------|-------------------|---------------------|
----------------------|-------------------|---------------------|
--5------7------10----|--7----------------|--5------7------8----|
----------------------|-------------------|---------------------|
----------------------|-------------------|---------------------|


  W                   Q.     Q.      Q                        
-------------------|-----------------------||-------|-------||
-------------------|-----------------------||-------|-------||
-------------------|----------------------*||-------|-------||
--7----------------|--5------7------10----*||-------|-------||
-------------------|-----------------------||-------|-------||
-------------------|-----------------------||-------|-------||




Duration Legend
---------------
W - whole
H - half
Q - quarter
E - 8th
S - 16th
T - 32nd
X - 64th
. - note dotted
|-n-|  - n-tuplets


Tablature Legend
----------------
L - tied note
x - dead note
g - grace note
(n) - ghost note
> - accentuded note
NH - natural harmonic
AH - artificial harmonic
TH - tapped harmonic
SH - semi harmonic
PH - pitch harmonic
h - hammer on
p - pull off
b - bend
br - bendRelease
pb - preBend
pbr - preBendRelease
brb - bendReleaseBend
\n/ - tremolo bar dip
\n - tremolo bar dive
-/n - tremolo bar Release up
/n\ - tremolo bar inverted dip
/n - tremolo bar return
-\n - tremolo bar Release down
S - shift slide
s - legato slide
/ -  slide into from below or out of upwards
\ -  slide into from above or out of downwards
~ - vibrato
W - wide vibrato
tr - trill
TP - tremolo picking
T - tapping
S - slap
P - pop
< - fade in
^ - brush up
v - brush down



            
            
Suggest correction
Creating personal tab
Creating personal tab
You can edit any tab online and save it as your Personal.

You can edit, replace or remove any tab part or add personal notes – all changes will be seen only by you.

Personal tabs can be accessed anytime from any device, even offline.
Learn more »
Give kudos to tab author, rate the tab!
1 2 3 4 5
comments
print report bad tab
1 comment total.
0 reply
Fogaz 31 Jun 10, 2008 01:04 AM

thanks for putting it up sounds good..

guest
You may want to rate the tab now too:
select rating
Wanna post a correction for this tab? Suggest correction