Oops, an error
Loading. Please wait.

Sharks In Your Mouth tab

version 4
version 4
1,651 views 1 this week
1 commentread comment
1 2 3 4 5
3 more votes to show rating
add to favorites
×
Save as Personal and add changes to this tab that will be seen only by you. Learn more ›
×
You can save this tab as Personal to edit and correct it or add notes. All changes will be seen only by you. Learn more »
launch autoscroll
font size
0
reset
how to read this tab
guitar tuner
edit
Autoscroll
slow
fast
+/-
esc
set tempo
stop
artist: i killed the prom queen
song: sharks in your mouth
album: music for the recently deceased
Tabbed by: sensesfail_dude
Tuning:drop b   



note:only includes parts of guitar 2...


. = palm mute
x's 2 = play 2 times
* = pinch harmonic


gtr1
c-------------------------------------------------------------------------|
g-------------------------------------------------------------------------|
e-------------------------------------------------------------------------|
b--7--7--7-7--8---7-7---2-2--3-2-0----------------------------------------|
f--5--5--8-5--10--8-8---3-3--5-3-0----------------------------------------|
b-------------------------------------------------------------------------|

gtr2
|--------------------------------------------------------------------------|
|--------------------------------------------------------------------------|
|--------------------------------------------------------------------------|
|--------------------------------------------------------------------------|
|-000---000---000-000-000---333--333--333-333-333-333-333------------------|
|-000---000---000-000-000---333--333--333-333------------------------------|
  ...   ...   ... ... ...   ...  ...  ... ... ... ... ...


gtr 1 & 2
e|-------------------------------------------------------------------------|
B|-------------------------------------------------------------------------|
G|-------------------------------------------------------------------------|  
D|-----2h30h3------2h30h3-------------2h30h3------2h30h3-------------------|
A|-000---------000--------000-000-000---------000--------------------------|
E|-000---------000--------000-000-000---------000--------------------------|
   ...         ...        ... ... ...         ...
                                                                               3x's
                   
e|-------------------------------------------------------------------------|
B|-------------------------------------------------------------------------|
G|-------------------------------------------------------------------------|
D|-------------2h30h3-----2h30h3--------------2h30h3-----2h30h35323--------|
A|-000-000-333--------333--------333-333--333--------333-------------------|
E|-000-000-333--------333--------333-333-----------------------------------|
   ... ... ...        ...        ... ...  ...        ...

basicly the same thing just slowed down a bit

gtr 1
e|-------------------------------------------------------------------------|
B|-------------------------------------------------------------------------|
G|-------------------------------------------------------------------------|
D|----2h30h3-----2h30h3----------2h30h3----2h30h3--------------------------|
A|-00---------00--------00-00-00---------00--------------------------------|
E|-00---------00--------00-00-00---------00--------------------------------|
   ..         ..        .. .. ..         ..
                                                                              2x's
                   
e|-------------------------------------------------------------------------|
B|-------------------------------------------------------------------------|
G|-------------------------------------------------------------------------|
D|---------2h30h3-----2h30h3-----------2h30h3-----2h30h35323---------------|
A|-00-00-33--------33--------33-33--33--------33---------------------------|
E|-00-00-33--------33--------33-33-----------------------------------------|
   .. .. ..        ..        .. ..  ..        ..


gtr 2
|--------------------------------------------------------------------------|
|--------------------------------------------------------------------------|
|--------------------------------------------------------------------------|
|----57-7-----57--7---------57---7----57---7-----------57---7--------------|
|------8--------8--------------8---------8----------------8----------------|
|-00-------00-------00-00-00-------00---------00-00-33---------------------|
 
                                                                              2x's

|--------------------------------------------------------------------------|
|--------------------------------------------------------------------------|
|--------------------------------------------------------------------------|
|----57--7----------57---7----57--7-8757-----------------------------------|
|------8---------33----8---33----8-----------------------------------------|
|-33-------33-33-----------------------------------------------------------|


e|------------------------------------------------------------|------------|
B|----------------------------------------------tens----------|-on 2nd time|
G|------------------------------------------------------------|------------|
D|-----------------888-777-555-----------------101010-888-777-|-----7*-----|
A|-555-777-888---------------------777-888--------------------|------------|
E|-------------555-------------888---------777----------------|------------|

e|-------------------------------------------------------------------------|
B|-------------------------------------------------------------------------|
G|-------------------------------------------------------------------------|
D|-----5--------875------5-------------------------------------------------|
A|-5785-875-5785---8-5785-875-57854575-------------------------------------|
E|-------------------------------------------------------------------------|

the part RIGHT after this, when palm muted...im not too sure how it goes...


e|---------------------------------------------------------------------------|
B|---------------------------------------------------------------------------|
G|---------------------------------------------------------------------------|      |
D|-----2h30h3------2h30h3-3*------2h30h3-------------------------------------|      |
A|-000---------000------------000--------------------------------------------|      |
E|-000---------000------------000--------------------------------------------|      |
   ...         ...            ...
                                                                                               
                   
e|---------------------------------------------------------------------------|
B|---------------------------------------------------------------------------|
G|---------------------------------------------------------------------------|2x's 
D|-------------2h30h3-----2h30h3--------------2h30h3-----2h30h35323----------|
A|-000-000-333--------333--------333-333--333--------333---------------------|
E|-000-000-333--------333--------333-333-------------------------------------|
   ... ... ...        ...        ... ...  ...        ...


e|---------------------------------------------------------------------------|
B|---------------------------------------------------------------------------|
G|---------------------------------------------------------------------------|      |
D|----2h30h3-----2h30h3----------2h30h3----2h30h3----------------------------|      |
A|-00---------00--------00-00-00---------00----------------------------------|      |
E|-00---------00--------00-00-00---------00----------------------------------|      |
   ..         ..        .. .. ..         ..
                                                                              2x's
                   
e|---------------------------------------------------------------------------|
B|---------------------------------------------------------------------------|
G|---------------------------------------------------------------------------|
D|---------2h30h3-----2h30h3-----------2h30h3-----2h30h35323-----------------|
A|-00-00-33--------33--------33-33--33--------33-----------------------------|
E|-00-00-33--------33--------33-33-------------------------------------------|
   .. .. ..        ..        .. ..  ..        ..

figure out correct strum patterns

e|---------------------------------------------------------------------------|
B|---------------------------------------------------------------------------|
G|---------------------------------------------------------------------------|
D|---------------------------------------------------------------------------|
A|-000000000000000000---00-00-000000-00-00-00-0000000-00---------------------|
E|-000000000000000000---00-00-000000-00-00-00-0000000-00---------------------|
   ..................   .. .. ...... .. .. .. ....... ..

|----------------------------------------------------------------------------|
|----------------------------------------------------------------------------|
|----------------------------------------------------------------------------|
|----------------------------------------------------------------------------|
|-0-0-0-0-0-0-0-0-5-5-5-5-5-5-5-5-8-8-8-8-8-8-8-8-7-7-7-7-7-7-7-7------------|
|-0-0-0-0-0-0-0-0-5-5-5-5-5-5-5-5-8-8-8-8-8-8-8-8-7-7-7-7-7-7-7-7------------|
  . . . . . . . . . . . . . . . . . . . . . . . . . . . . . . . .


|----------------------------------------------------------------------------|
|----------------------------------------------------------------------------|
|----------------------------------------------------------------------------|
|----------------------------------------------------------------------------|
|-0----0----0----0----0----0----0----0---5----5---5---5---5----5----5----5---|
|-0----0----0----0----0----0----0----0---5----5---5---5---5----5----5----5---|
  .    .    .    .    .    .    .    .   .    .   .   .   .    .    .    .

|----------------------------------------------------------------------------|
|----------------------------------------------------------------------------|
|----------------------------------------------------------------------------|
|----------------------------------------------------------------------------|
|-8----8----8----8----8----8----8----8---7----7---7---7---7----7----7----7---|
|-8----8----8----8----8----8----8----8---7----7---7---7---7----7----7----7---|
  .    .    .    .    .    .    .    .   .    .   .   .   .    .    .    .

|----------------------------------------------------------------------------|
|----------------------------------------------------------------------------|
|----------------------------------------------------------------------------|
|-8--8---8---8---8---8---8---8---8--0------------------------------------5---|
|-8--8---8---8---8---8---8---8---8--0--0--0--0--0--0--0--0--0-5---7---8------|
|-8--8---8---8---8---8---8---8---8--0--0--0--0--0--0--0--0--0---0---0---0----|
                                       .  .  .  .  .  .  .  .   .   .   .


|----------------------------------------------------------------------------|
|----------------------------------------------------------------------------|
|----------------------------------------------------------------------------|
|-8---------8---------8---------8---------8---------8---------8--------------|
|-8---------8---------8---------8---------8---------8---------8--------------|
|-8---------8---------8---------8---------8---------8---------8--------------|


|----------------------------------------------------------------------------|
|----------------------------------------------------------------------------|
|----------------------------------------------------------------------------|
|-8--------------------------------------------------------------------------|
|-8---------0-----0--------0--------0-----0--------0--------0-----0------0---|
|-8---------0-----0--------0--------0-----0--------0--------0-----0------0---|
            .     .        .        .     .        .        .     .      .

|----------------------------------------------------------------------------|
|----------------------------------------------------------------------------|
|----------------------------------------------------------------------------|
|---------------------8-------8--------8--------8--------8--------8----------|
|----0-------0--------8-------8--------8--------8--------8--------8----------|
|----0-------0--------8-------8--------8--------8--------8--------8----------|
     .       .


|----------------------------------------------------------------------------|
|----------------------------------------------------------------------------|
|----------------------------------------------------------------------------|
|-8------0-------------------------------------------8--8--8--8--8--8--8-----|
|-8------0----0--0--0---0--0--0---5---7---8---5------8--8--8--8--8--8--8-----|
|-8------0----0--0--0---0--0--0-----0---0---0--------8--8--8--8--8--8--8-----|
              .  .  .   .  .  .     .   .   .

|---------------------------------------------------------------------------|
|---------------------------------------------------------------------------|
|---------------------------------------------------------------------------|
|-8---7---------------------------------------------------------------------|
|-8---7---5-0-0-0-0-0-0-0-5-0-0-0-0-0-0-0-5-0-0-0-0-0-0-0-8-0-0-0-7-0-0-0---|
|-8---7-----0-0-0-0-0-0-0---0-0-0-0-0-0-0---0-0-0-0-0-0-0---0-0-0---0-0-0---|
            . . . . . . .   . . . . . . .   . . . . . . .   . . .   . . .


|------------------------------------------------------------------|
|------------------------------------------------------------------|
|------------------------------------------------------------------|
|------------------------------------------------------------------|6x's
|-5-0-0-0-0-0-0-0-5-0-0-0-0-0-0-0-5-0-0-0-0-0-0-0-8-0-0-0-7-0-0-0--|
|---0-0-0-0-0-0-0---0-0-0-0-0-0-0---0-0-0-0-0-0-0---0-0-0---0-0-0--|
    . . . . . . .   . . . . . . .   . . . . . . .   . . .   . . .


            
            
Suggest correction
Creating personal tab
Creating personal tab
You can edit any tab online and save it as your Personal.

You can edit, replace or remove any tab part or add personal notes – all changes will be seen only by you.

Personal tabs can be accessed anytime from any device, even offline.
Learn more »
Give kudos to tab author, rate the tab!
1 2 3 4 5
comments
print report bad tab
1 comment total.
0 reply
SensesFail_dude 204 Aug 09, 2009 12:40 PM

gtr 2
|----------------------------------------------------------------------------|
|----------------------------------------------------------------------------|
|----------------------------------------------------------------------------|
|----57-7-----57--7---------57---7----57---7-----------57---7----------------|
|-00---8---00---8---00-00-00---8---00----8----00-00-33----8------------------|
|-00-------00-------00-00-00-------00---------00-00-33-----------------------|
.. .. .. .. .. .. .. .. ..
2x's

|----------------------------------------------------------------------------|
|----------------------------------------------------------------------------|
|----------------------------------------------------------------------------|
|----57--7----------57---7----57--7-8757-------------------------------------|
|-33---8---33-33-33----8---33----8-------------------------------------------|
|-33-------33-33-------------------------------------------------------------|
.. .. .. .. ..

guest
You may want to rate the tab now too:
select rating
Wanna post a correction for this tab? Suggest correction