Oops, an error
Loading. Please wait.

To Kill Tomorrow Bass Tab

516 views 1 this week
1 commentread comment
1 2 3 4 5
please rate
add to favorites
launch autoscroll
font size
0
reset
guitar tuner
Tab Pro tools
  • play this tab
  • loop segment
  • change instrument
  • show fretboard
  • metronome
Autoscroll
slow
fast
+/-
esc
set tempo
stop
Contributor
Difficulty
Tuning
intermediate
C G C F A D
Tabbed My Mandell F.  if you need me just pm me.

   Drop C Tuning C G C F

   Was a bit hard to tab really, and there was nothing to base it on so, it might not be 
correct, this is only my 3rd Tab.

    Intro X2


F |--------------------------------------------------|
C |--00000000----------------------------------------|
G |--------------------------------------------------|
C |----------999999999-777777777-5555-3333-----------|


  F |---------------------------------------------|
  C |---------------------------------------------|
  G |----------------------------7-5--------------|
  C |-00-00-00-00-00-00-00-00-00-----7-5----------| every so often throw this fill in

             the picking rhythm will change every so often. do these for ages
    F |----------------------------------------------|
    C |----------------------------------------------|
    G |-------------------------------7-5------------|
    C |-0000-0000-0000-0000-0000-0000----7-5-0000----|I


   Chorus is same as intro
                X2
     F |--------------------------------------------------|
     C |--00000000----------------------------------------|
     G |--------------------------------------------------|
     C |----------999999999-777777777-5555-3333-----------|


    then verse again

     F |---------------------------------------------|
     C |---------------------------------------------|
     G |----------------------------7-5--------------|
     C |-00-00-00-00-00-00-00-00-00-----7-5----------|


     F |---------------------------------------------|
     C |---------------------------------------------|
     G |----------------------------7-5--------------|
     C |-00-00-00-00-00-00-00-00-00-----7-5----------|


      pre chorus bit


      F |-----------------------------------------------------------|
      C |-----------------------------------------------------------|
      G |-----------------------------------------------------------|
      C |-99-999-99-999-77-777-77-777-77-777-77-777-55-555-55-555---|

         then chorus again


       then its

        F |---------------------------------------------|
        C |---------------------------------------------|
        G |---------------------------------------------|
        C |-77777777-55555555-00-00-00-00-00-00-00------|


          BREAKDOWN! do the fills with the guitar. you gotta do an almost shred pattern 
but with your fingers, really fast picking.

          F |---------------------------------------------|
          C |---------------------------------------------|
          G |----------------------------75---------------|
          C |-00-00-00000000-00-00000000-00----75---------|

    END

thats it really, not a very difficult song to play, just need to get the feel of the song a bit.
comments
We did not receive enough feedback on this tab! Please rate:
print report bad tab
1 2 3 4 5
1 comment total.
0 reply
metallica100 wrote on May 8 2008, 03:49 am

the start would be 0X16 10X16 8X16 5X8 3X3

I want to post or [tab]
guest
You may want to rate the tab now too:
select rating
Please do not post tabs as comments. Select "correction" instead!