Oops, an error
Loading. Please wait.

Upon A Rivers Sky tab

2,889 views 1 this week
6 commentsread comments
1 2 3 4 5
x 3
add to favorites
×
Save as Personal and add changes to this tab that will be seen only by you. Learn more ›
×
You can save this tab as Personal to edit and correct it or add notes. All changes will be seen only by you. Learn more »
launch autoscroll
font size
0
reset
how to read this tab
guitar tuner
edit
Autoscroll
slow
fast
+/-
esc
set tempo
stop
when u copy this tab to word, print it as courier new 7.5 size font
This tab is very close, it has pretty much everything except for the outro

Upon a Rivers Sky

Intro (repeat as necessary)
e----------------------------------------------------------------
B----------------------------------------------------------------
G----------------------------------------------------------------
D-15-15-15-15-15-15--10-10-10-10-10-10--3-3-3-3-3-3--7-7-7-7-7-7-
A-12-12-12-12-12-12---8--8--8--8--8--8--3-3-3-3-3-3--5-5-5-5-5-5-
D-12-12-12-12-12-12---8--8--8--8--8--8--3-3-3-3-3-3--5-5-5-5-5-5-

Verse (repeat as necessary) "Rebellion of a driven prince..."
e--------------------------------------------------------------------
B--------------------------------------------------------------------
G-7-7-7-7-7-7-7-7-------------------5-5-5-5-5-5-5-5--7-7-7-7-7-7-7-7-
D-7-7-7-7-7-7-7-7--8-8-8-8-8-8-8-8--3-3-3-3-3-3-3-3--5-5-5-5-5-5-5-5-
A-5-5-5-5-5-5-5-5--8-8-8-8-8-8-8-8--3-3-3-3-3-3-3-3--5-5-5-5-5-5-5-5-
D------------------8-8-8-8-8-8-8-8--3-3-3-3-3-3-3-3--5-5-5-5-5-5-5-5-

Bridge 1 (repeat as necessary)
e---------------------
B---------------------
G----------5-7-10-9-7-
D-0-0-0-0--x-x-x--x-x-
A-0-0-0-0—-3/5/8--7-5-
D-0-0-0-0-------------
  . . . .    

Verse (repeat as necessary) " This time I will not be denied..."
e--------------------------------------------------------------------
B--------------------------------------------------------------------
G-7-7-7-7-7-7-7-7-------------------5-5-5-5-5-5-5-5--7-7-7-7-7-7-7-7-
D-7-7-7-7-7-7-7-7--8-8-8-8-8-8-8-8--3-3-3-3-3-3-3-3--5-5-5-5-5-5-5-5-
A-5-5-5-5-5-5-5-5--8-8-8-8-8-8-8-8--3-3-3-3-3-3-3-3--5-5-5-5-5-5-5-5-
D------------------8-8-8-8-8-8-8-8--3-3-3-3-3-3-3-3--5-5-5-5-5-5-5-5-

Bridge 2 (repeat as necessary) "today, forever I will not be denied..."
e------------------------------------------------------------------------------------
B------------------------------------------------------------------------------------
G------------------------------------------------------------------------------------
D-15-15-15-15-15-15-15-15--10-10-10-10-10-10-10-10--3-3-3-3-3-3-3-3--7-7-7-7-7-7-7-7-
A-12-12-12-12-12-12-12-12---8--8--8--8--8--8--8—-8--3-3-3-3-3-3-3-3--5-5-5-5-5-5-5-5-
D-12-12-12-12-12-12-12 12---8--8--8--8--8—-8-—8—-8--3-3-3-3-3-3-3-3--5-5-5-5-5-5-5-5-

Interlude???
Guitar 1 (repeat) "The sixth demon pulls his strings (screamed)...and he will see"
e------------------------------------------------------------------
B------------------------------------------------------------------
G------------------------------------------------------------------
D-0--7-7h8-8----0-0-0-0--7-7h8-8----0--7-7h8-8----0-0-0-0--10-10h12-
A-0--7-7h8-8----0-0-0-0--7-7h8-8----0--7-7h8-8----0-0-0-0--10-10h12-
D-0--7-7h8-8----0-0-0-0--7-7h8-8----0--7-7h8-8----0-0-0-0--10-10h12-
                . . . .                           . . . .        

Guitar 2 (comes in later) " The sixth demon (spoken)"
e---------------------------------------
B---------------------------------------
G---------------------------------------
D-0—-15-15/14----0-0-0-0—15-15/14-14-17- 
A-0—-15-15/14----0-0-0-0—15-15/14-14-17-
D-0—-15-15/14----0-0-0-0—15-15/14-14-17-
              . . . .    

Bridge 2 
Guitar 1 (guitar 2 plays octaves or something)
e---------
B---------
G---------
D-0-0-0-0-
A-0-0-0-0—
D-0-0-0-0-



After interlude
Guitar 1 (repeat as necessary)
e----------------------------------------------------------------------------------------------
B----------------------------------------------------------------------------------------------
G----------------------------------------------------------------------------------------------
D-0--0--0-0--0--0-0--0---10--10--10-10--10--10-10--10---8--8--8-8--8--8-8--8--14-14/15-15/17-15
A-0--0--0-0--0--0-0--0---10--10--10-10--10--10-10—-10---8--8--8-8--8--8-8--8---x--x--x--x--x-=x
D-0--0--0-0--0--0-0--0---10--10—-10-10--10—-10-10--10---8--8--8-8--8--8-8--8--14-14/15-15/17-15
  .  .  . .  .  . .  .    .   .   .  .   .   .  .   .   .  .  . .  .  . .  .

Guitar 2 (repeat as necessary)
e-13-----13------12-----13-----
B---10-----10------10-----10---
G-----10-----10------10-----10-  x3 (then play the continuation)
D-—--------—-------------------
A-—--------—-------------------
D------------------------------

Cont...
e------------
B------------
G-9-10-12-10-
D-x--x--x--x-
A-7--8-10--8-
D------------

            
            
Suggest correction
Creating personal tab
Creating personal tab
You can edit any tab online and save it as your Personal.

You can edit, replace or remove any tab part or add personal notes – all changes will be seen only by you.

Personal tabs can be accessed anytime from any device, even offline.
Learn more »
Give kudos to tab author, rate the tab!
1 2 3 4 5
comments
print report bad tab
6 comments total. Showing first comments.
0 reply
tbs4ever64420 10 Feb 22, 2006 12:35 AM

great tab
took me like 10 hours
to figure out it was
in drop D.... lol

0 reply
ratchet 30 Apr 11, 2006 01:44 AM

missed out heaps of parts

0 reply
adamonfire 92 Aug 16, 2006 06:21 AM

i wrote this tab.
i forgot to mention its the ep version, not the album one. Hence its in D. i tabbed it before the album came out so yeh.
there are mistakes and that but i couldnt be bothered redoing it. its sounds alright though...

CHECK OUT MY CARPATHIAN TABS AS WELL!! cheers

guest
Wanna post a correction for this tab? Suggest correction