Oops, an error
Loading. Please wait.

The Owl Tab

version 1
version 1

Whole song

562 views 1 this week
no commentswrite comment
1 2 3 4 5
2 more votes to show rating
add to favorites
launch autoscroll
font size
0
reset
how to read this tab
guitar tuner
Autoscroll
slow
fast
+/-
esc
set tempo
stop
Help us to improve Ultimate-Guitar.com Take our survey!
×
Author
Difficulty
novice
The single note in "Guitar 1" is being played throughout the whole song.

Guitar 1:    
     
e|---|       
B|-3-|       
G|---|       
D|---|       
A|---|       
E|---|       


Guitar 2:
[00:31-00:58]     [00:59-01:27]
e|-----------|    e|-----0-------0-|
B|-2-----2---|    B|-2-------2-----|
G|---3-----2-|x4  G|---3-------2---|x4
D|-----------|    D|---------------|
A|-----------|    A|---------------|
E|-----------|    E|---------------|


[01:28] [01:42]
e|---------------------------0---------------------|
B|-------------------------------1-----------------|
G|-2-----2---2---2---2---2-----------3---2---2---2-|
D|-------------------------------------------------|
A|-------------------------------------------------|
E|-------------------------------------------------|

-jpvoavdt!-
Suggest correction
Give kudos to tab author, rate the tab!
1 2 3 4 5
comments
print report bad tab
guest
You may want to rate the tab now too:
select rating
Wanna post a correction for this tab? Suggest correction