Oops, an error
Loading. Please wait.

Same In Any Language Tab

8,633 views 1 this week
no commentswrite comment
1 2 3 4 5
excellent!
x 3
add to favorites
launch autoscroll
font size
0
reset
how to read this tab
guitar tuner
Autoscroll
slow
fast
+/-
esc
set tempo
stop
Help us to improve Ultimate-Guitar.com Take our survey!
×
Contributor
Difficulty
intermediate
*get chord rhythms by listening to the song

/-slide up
p-pull off
x-dont play
Intro:

e|-------------------x---x-x-x---x--|
B|------3------------0---1-0-1---1--|
G|--0-------0---4----0---0-0-0---0--|
D|0---4-------2------0---2-0-2---2--|  x2
A|--------3----------3---3-3-3---3--|
E|----------------3--3(3)3-3-3(3)3--|

Verse:
Riff 1                                   Riff 2
e|-------------------x---x-x-x---x------|---------------2-2--3--0-------|
B|------3------------0---1-0-1---1------|---------------0-0--0--1-------|
G|--0-------0---4----0---0-0-0---0------|--2/4-4-7p4-0--0-0--0--0-------|
D|0---4-------2------0---2-0-2---2--x2--|---------------0-0--0--0---x2--|  
A|--------3----------3---3-3-3---3------|---------------x-x--x--x-------|
E|----------------3--3(3)3-3-3(3)3------|---------------x-x--x--x-------|

then back to:
e|-------------------x---x-x-x---x------|
B|------3------------0---1-0-1---1------|
G|--0-------0---4----0---0-0-0---0------|
D|0---4-------2------0---2-0-2---2--x3--| 
A|--------3----------3---3-3-3---3------|
E|----------------3--3(3)3-3-3(3)3------|

merges straight into this:    e|--3------------|-----x---x-x-x---x--|
                              B|--3------------|-----0---1-0-1---1--|
                              G|--0------------|-----0---0-0-0---0--|
                              D|--0-repeatedly-|-----0---2-0-2---2--|
                              A|--2------------|-----3---3-3-3---3--|
                              E|--3------------|--3--3(3)3-3-3(3)3--|
then:
e|---------------2-2--3--0-------|
B|---------------0-0--0--1-------|
G|--2/4-4-7p4-0--0-0--0--0-------|
D|---------------0-0--0--0---x2--|  
A|---------------x-x--x--x-------|
E|---------------x-x--x--x-------|

e|-------------------x---x-x-x---x--|
B|------3------------0---1-0-1---1--|
G|--0-------0---4----0---0-0-0---0--|
D|0---4-------2------0---2-0-2---2--|  x2
A|--------3----------3---3-3-3---3--|
E|----------------3--3(3)3-3-3(3)3--|

Chorus:  
its really hard to hear anything of the acoustic in this so this is tentative
e|--x--------------3--------------------|
B|--1--------------3--------------------|
G|--0--------------0--------------------|
D|--2--repeatedly--0--repeatedly--------| however many you think it takes 
A|--3--------------2--------------------|
E|--3--------------3--------------------|

then merge into:
e|----x---x-x-x---x------|
B|----0---1-0-1---1------|
G|----0---0-0-0---0------|
D|----0---2-0-2---2--x2--|  (x10 second time through)
A|----3---3-3-3---3------|
E|-3--3(3)3-3-3(3)3------|

Verse2
e|----x---x-x-x---x------|---------------2-2--3--0-------|
B|----0---1-0-1---1------|---------------0-0--0--1-------|
G|----0---0-0-0---0------|--2/4-4-7-4-0--0-0--0--0-------|
D|----0---2-0-2---2--x2--|---------------0-0--0--0---x2--|  
A|----3---3-3-3---3------|---------------x-x--x--x-------|
E|-3--3(3)3-3-3(3)3------|---------------x-x--x--x-------|

merge into this:
e|----x---x-x-x---x------|
B|----0---1-0-1---1------|
G|----0---0-0-0---0------|
D|----0---2-0-2---2--x2--|  
A|----3---3-3-3---3------|
E|-3--3(3)3-3-3(3)3------|

~CHORUS~

 Outro
e|-------------------|
B|------3------------|
G|--0-------0---4-2/4|
D|0---4-------2------|  
A|--------3----------|
E|-------------------|

Have fun and enjoy playin!!!

comments
We did not receive enough feedback on this tab! Please rate:
print report bad tab
1 2 3 4 5
I want to post or [tab]
guest
You may want to rate the tab now too:
select rating
Please do not post tabs as comments. Select "correction" instead!