Oops, an error
Loading. Please wait.

Fine Della Fiera bass

version 1
version 1

Whole song

  • It's a Good transcription of a song.

Interactive

by I Pixel
10 views 1 this week
no commentswrite comment
1 2 3 4 5
3 more votes to show rating
add to favorites
×
Save as Personal and add changes to this tab that will be seen only by you. Learn more ›
×
You can save this tab as Personal to edit and correct it or add notes. All changes will be seen only by you. Learn more »
launch autoscroll
font size
0
reset
guitar tuner
edit
Autoscroll
slow
fast
+/-
esc
set tempo
stop
About this tab version
It's a Good transcription of a song. Was this info helpful? Yes No
Title: Fine Della Fiera (Bass Guitar)
Words by Andrea Briselli
Music By I Pixel
Copyright: I Pixel - La Clinica Dischi
Tabber: Alex Ferri
Tempo = 106
Electric Bass

G|----|----|----|----------------------------|-------|
D|----|----|----|----------------------------|-------|
A|----|----|----|----------------------------|-------|
E|----|----|----|--------------------3--6----|--8L---|

G|--------------------------------------------------------------------------------|
D|--------------------------------------------------------------------------------|
A|--------------------------------------------------------------------------------|
E|--8L----------------------------------------------------------------------------|

G|--------------------------------------------------------------------------------|
D|--------------------------------------------------------------------------------|
A|--------------------------------------------------------------------------------|
E|------------------8-----------------------6-----8.------------------------------|

G|---------------------------------------------------|-------|
D|---------------------------------------------------|-------|
A|---------------------------------------------------|-------|
E|----6--------8.------------------------------------|--6L---|

G|----------------------------|----------------------------|
D|----------------------------|----------------------------|
A|-----------------6s-5-------|----------------------------|
E|--6--------------------6----|--8--8--8--8--8--8--8--8----|

G|----------------------------|----------------------------|
D|----------------------------|----------------------------|
A|-----------------6--5-------|----------------------------|
E|--8--8--8--8--8--------8----|--6--6--6--6--6--6--6--6----|

G|----------------------------|----------------------------|
D|----------------------------|----------------------------|
A|--6--5-----6--5-----6--5----|--------------10-10-10-10---|
E|--------6--------6----------|--8--8--8--8----------------|

G|----------------------------|----------------------------|
D|--------------8--8--7--7----|----------------------------|
A|----------------------------|--8--8--8--8--8--8--8--8----|
E|--8--8--8--8----------------|----------------------------|

G|----------------------------|----------------------------|
D|----------------------------|----------------------------|
A|--8--8--8--8--8s-6--5-------|----------------------------|
E|-----------------------6----|--8--------8.----------6----|

G|----------------------------|----------------------------|----------------|
D|----------------------------|----------------------------|----------------|
A|--------------6--5----------|--------------------5--6----|----------------|
E|--8--------8--------8--5----|--6--------6.---------------|--6-----3.-6.---|

G|----------------------------|----------------------------|
D|----------------------------|----------------------------|
A|----------------------------|--------------6--5----------|
E|--8--------8--------3-------|--8--------8--------8--5----|

G|--------8--7----------------|--------8--7-----------8----|
D|-----------------8----------|-----------------8s-10------|
A|----------------------------|----------------------------|
E|--6--------------------6L---|--6-------------------------|

G|----------------------------|----------------------------|
D|----------------------------|----------------------------|
A|----------------------------|--------------6--5----------|
E|--8--------8.----------6----|--8--------8--------8--5----|

G|----------------------------|----------------|----------------------------|
D|----------------------------|----------------|----------------------------|
A|--------------------5--6----|----------------|----------------------------|
E|--6--------6.---------------|--6-----3.-6.---|--8--------8--------3-------|

G|----------------------------|--------8--7----------------|
D|----------------------------|-----------------8----------|
A|--------------6--5----------|----------------------------|
E|--8--------8--------8--5----|--6--------------------6L---|

G|--------8--7-----------8----|-------|-------|-------|-------|-------|-------|
D|-----------------8s-10------|-------|-------|-------|-------|-------|-------|
A|----------------------------|--10L--|--10---|--8L---|--8----|--6L---|--6----|
E|--6-------------------------|-------|-------|-------|-------|-------|-------|

G|-------|-------||-------10-10-7--7--7-------|--------10-10-7--7--7-------|
D|-------|-------||o---------------------8----|-----------------------8----|
A|--8L---|--8----||o10-10---------------------|--10-10---------------------|
E|-------|-------||---------------------------|----------------------------|

G|--------10-10-7--7--7-------|--------10-10-7--7--7-------|
D|-----------------------8----|-----------------------8----|
A|--8--8----------------------|--8--8----------------------|
E|----------------------------|----------------------------|

G|--------10-10-7--7--7-------|--------10-10-7--7--7-------|
D|-----------------------8----|-----------------------8----|
A|--6--6----------------------|--6--6----------------------|
E|----------------------------|----------------------------|

G|--------10-10-7--7--7-------|-----10-10----10-8--7------||
D|-----------------------8----|-----------------------8--o||
A|--8--8----------------------|--8--------8--------------o||
E|----------------------------|---------------------------||

G|----------------------------|----------------------------|
D|----------------------------|----------------------------|
A|----------------------------|-----------------6--5-------|
E|--8--8--8--8--8--8--8--8----|--8--8--8--8--8--------8----|

G|----------------------------|----------------------------|
D|----------------------------|----------------------------|
A|----------------------------|--6--5-----6--5-----6--5----|
E|--6--6--6--6--6--6--6--6----|--------6--------6----------|

G|----------------------------|----------------------------|
D|----------------------------|--------------8--8--7--7----|
A|--------------10-10-10-10---|----------------------------|
E|--8--8--8--8----------------|--8--8--8--8----------------|

G|----------------------------|----------------------------|
D|----------------------------|----------------------------|
A|--8--8--8--8--8--8--8--8----|--8--8--8--8--8s-6--5-------|
E|----------------------------|-----------------------6----|

G|----------------------------|----------------------------|
D|----------------------------|----------------------------|
A|----------------------------|--------------6--5----------|
E|--8--------8.----------6----|--8--------8--------8--5----|

G|----------------------------|----------------|----------------------------|
D|----------------------------|----------------|----------------------------|
A|--------------------5--6----|----------------|----------------------------|
E|--6--------6.---------------|--6-----3.-6.---|--8--------8--------3-------|

G|----------------------------|--------8--7----------------|
D|----------------------------|-----------------8----------|
A|--------------6--5----------|----------------------------|
E|--8--------8--------8--5----|--6--------------------6L---|

G|--------8--7-----------8----||---------------------------|
D|-----------------8s-10------||o--------------------------|
A|----------------------------||o--------------------------|
E|--6-------------------------||-8--------8.----------6----|

G|----------------------------|----------------------------|---------------||
D|----------------------------|----------------------------|--------------o||
A|--------------6--5----------|--------------------5--6----|--------------o||
E|--8--------8--------8--5----|--6--------6.---------------|--6-----3.-6.--||

G|----------------------------|----------------------------|
D|----------------------------|----------------------------|
A|----------------------------|--------------6--5----------|
E|--8--------8--------3-------|--8--------8--------8--5----|

G|--------8--7----------------|--------8--7-----------8----|-------|-------|
D|-----------------8----------|-----------------8s-10------|-------|-------|
A|----------------------------|----------------------------|--10L--|--10---|
E|--6--------------------6L---|--6-------------------------|-------|-------|

G|-------|-------|-------|-------|-------|-------||-------10-10-7--7--7-------|
D|-------|-------|-------|-------|-------|-------||o---------------------8----|
A|--8L---|--8----|--6L---|--6----|--8L---|--8----||o10-10---------------------|
E|-------|-------|-------|-------|-------|-------||---------------------------|


G|--------10-10-7--7--7-------|--------10-10-7--7--7-------|
D|-----------------------8----|-----------------------8----|
A|--10-10---------------------|--8--8----------------------|
E|----------------------------|----------------------------|

G|--------10-10-7--7--7-------|--------10-10-7--7--7-------|
D|-----------------------8----|-----------------------8----|
A|--8--8----------------------|--6--6----------------------|
E|----------------------------|----------------------------|

G|--------10-10-7--7--7-------|--------10-10-7--7--7-------|
D|-----------------------8----|-----------------------8----|
A|--6--6----------------------|--8--8----------------------|
E|----------------------------|----------------------------|

G|-----10-10----10-8--7------||-------|-------|-------|-------|-------|-------|
D|-----------------------8--o||--5L---|--5----|-------|-------|--5L---|--5----|
A|--8--------8--------------o||-------|-------|--5L---|--5----|-------|-------|
E|---------------------------||-------|-------|-------|-------|-------|-------|

G|----------------|----------------------------|----------------------------|
D|----------------|----------------------------|--3s-5--5--5--5--5--5--5----|
A|--5L-------5s---|--------------------1--1----|----------------------------|
E|----------------|--1--1--2--2--3--3----------|----------------------------|

G|----------------------------|----------------------------|
D|--3s-5--5--5--5--5--5--5----|--5s-3--3--3--3--3--3--3----|
A|----------------------------|----------------------------|
E|----------------------------|----------------------------|

G|----------------------------|----------------------------|
D|--5s-3--3--3--3--3--3--3----|--3s-1--1--1--1--1--1--1----|
A|----------------------------|----------------------------|
E|----------------------------|----------------------------|

G|----------------------------|----------------------------|
D|--3s-1--1--1--1--1--1--1----|--1s-3--3--3--3--3--3--3----|
A|----------------------------|----------------------------|
E|----------------------------|----------------------------|

G|----------------------------|----------------------------|
D|--3--3--3--3--3--3--3--3----|--5--5--5--5--5--5--5--5----|
A|----------------------------|----------------------------|
E|----------------------------|----------------------------|

G|----------------------------|----------------------------|
D|--5--5--5--5--5--5--5--5----|--3--3--3--3--3--3--3--3----|
A|----------------------------|----------------------------|
E|----------------------------|----------------------------|

G|----------------------------|----------------------------|
D|--3--3--3--3--3--3--3--3----|--1--1--1--1--1--1--1--1----|
A|----------------------------|----------------------------|
E|----------------------------|----------------------------|

G|----------------------------|----------------------------|
D|--1--1--1--1--1--1--1--1----|--3--3--3--3--3--3--3--3----|
A|----------------------------|----------------------------|
E|----------------------------|----------------------------|

G|----------------------------|----------------------------|
D|--3--3--3--3--3--3--3--3----|--5--5--5--5--5--5--5--5----|
A|----------------------------|----------------------------|
E|----------------------------|----------------------------|

G|----------------------------|----------------------------|
D|--5--5--5--5--5--5--5--5----|--3--3--3--3--3--3--3--3----|
A|----------------------------|----------------------------|
E|----------------------------|----------------------------|

G|----------------------------|----------------------------|
D|--3--3--3--3--3--3--3--3----|--1--1--1--1--1--1--1--1----|
A|----------------------------|----------------------------|
E|----------------------------|----------------------------|

G|----------------------------|----------------------------|
D|--1--1--1--1--1--1--1--1----|--3--3--3--3--3--3--3--3----|
A|----------------------------|----------------------------|
E|----------------------------|----------------------------|

G|----------------------------||
D|--3--3--3--3--3--3--3--3s---||
A|----------------------------||
E|----------------------------||

            
            
Suggest correction
Creating personal tab
Creating personal tab
You can edit any tab online and save it as your Personal.

You can edit, replace or remove any tab part or add personal notes – all changes will be seen only by you.

Personal tabs can be accessed anytime from any device, even offline.
Learn more »
Give kudos to tab author, rate the tab!
1 2 3 4 5
comments
print report bad tab
guest
Wanna post a correction for this tab? Suggest correction