Oops, an error
Loading. Please wait.

Sirenamente tab

version 1
version 1

Whole song

Interactive

by I Pixel
7 views 1 this week
no commentswrite comment
1 2 3 4 5
3 more votes to show rating
add to favorites
×
Save as Personal and add changes to this tab that will be seen only by you. Learn more ›
×
You can save this tab as Personal to edit and correct it or add notes. All changes will be seen only by you. Learn more »
launch autoscroll
font size
0
reset
how to read this tab
guitar tuner
edit
Autoscroll
slow
fast
+/-
esc
set tempo
stop
Title: Sirenamente (Lead Gtr)
Words by Andrea Briselli
Music by I Pixel
Copyright: I Pixel - La Clinica Dischi
Tempo = 112
Electric Guitar

     =       =       =       =       =       =       =       =       =     
E |--21---|--21s--|--9----|--9s---|--21---|--21s--|--9s---|--21---|--21---|
B |-------|-------|-------|-------|-------|-------|-------|-------|-------|
G |-------|-------|-------|-------|-------|-------|-------|-------|-------|
D |-------|-------|-------|-------|-------|-------|-------|-------|-------|
A |-------|-------|-------|-------|-------|-------|-------|-------|-------|
E |-------|-------|-------|-------|-------|-------|-------|-------|-------|

  =       =       =       =       =       =       =     
--21s--|--9----|--9s---|--21---|--21s--|--9----|--9----|
-------|-------|-------|-------|-------|-------|-------|
-------|-------|-------|-------|-------|-------|-------|
-------|-------|-------|-------|-------|-------|-------|
-------|-------|-------|-------|-------|-------|-------|
-------|-------|-------|-------|-------|-------|-------|

                                                          
--4L-4L-4--4L-4L-4--4L-4----|--4L-4L-4--4L-4L-4--4L-4----|
----------------------------|----------------------------|
-----6--6L-6--6--6L-6--6----|-----6--6L-6--6--6L-6--6----|
----------------------------|----------------------------|
----------------------------|----------------------------|
----------------------------|----------------------------|

                                                          
----------------------------|----------------------------|
--5L-5L-5--5L-5L-5--5-------|--4L-4L-4--5L-5--4L-4--5----|
-----6--6L-6--6--6L-6--6----|-----6--6L-6--6L-6--6-------|
----------------------------|----------------------------|
----------------------------|----------------------------|
----------------------------|----------------------------|

                                                          
--4L-4L-4--4L-4L-4--4L-4----|--4L-4L-4--4L-4L-4--4L-4----|
----------------------------|----------------------------|
-----6--6L-6--6--6L-6--6----|-----6--6L-6--6--6L-6--6----|
----------------------------|----------------------------|
----------------------------|----------------------------|
----------------------------|----------------------------|

                                                          
----------------------------|----------------------------|
--5L-5L-5--5L-5L-5--5-------|--4L-4L-4--5L-5--4L-4--5----|
-----6--6L-6--6--6L-6--6----|-----6--6L-6--6L-6--6-------|
----------------------------|----------------------------|
----------------------------|----------------------------|
----------------------------|----------------------------|

                                                          
--4L-4L-4--4L-4L-4--4L-4----|--4L-4L-4--4L-4L-4--4L-4----|
----------------------------|----------------------------|
-----6--6L-6--6--6L-6--6----|-----6--6L-6--6--6L-6--6----|
----------------------------|----------------------------|
----------------------------|----------------------------|
----------------------------|----------------------------|

                                                          
----------------------------|----------------------------|
--5L-5L-5--5L-5L-5--5-------|--4L-4L-4--5L-5--4L-4--5----|
-----6--6L-6--6--6L-6--6----|-----6--6L-6--6L-6--6-------|
----------------------------|----------------------------|
----------------------------|----------------------------|
----------------------------|----------------------------|

                                                          
--4L-4L-4--4L-4L-4--4L-4----|--4L-4L-4--4L-4L-4--4L-4----|
----------------------------|----------------------------|
-----6--6L-6--6--6L-6--6----|-----6--6L-6--6--6L-6--6----|
----------------------------|----------------------------|
----------------------------|----------------------------|
----------------------------|----------------------------|

                                                          
----------------------------|----------------------------|
--5L-5L-5--5L-5L-5--5-------|--4L-4L-4--5L-5--4L-4--5----|
-----6--6L-6--6--6L-6--6----|-----6--6L-6--6L-6--6-------|
----------------------------|----------------------------|
----------------------------|----------------------------|
----------------------------|----------------------------|

                                                                  
--9-----9--9--9--9--9--9s---|--16-14----12----14---------|--9----|
----------------------------|----------------------------|--9----|
----------------------------|----------------------------|--9----|
----------------------------|----------------------------|-------|
----------------------------|----------------------------|-------|
----------------------------|----------------------------|-------|

                                                                          
--16s14----12----14---------|--9----|--16s14----12----14---------|--16---|
----------------------------|--9----|----------------------------|--17---|
----------------------------|--9----|----------------------------|--16---|
----------------------------|-------|----------------------------|-------|
----------------------------|-------|----------------------------|-------|
----------------------------|-------|----------------------------|-------|

                                                               =       =     
--16-16-14-14-19-19-14s-----|--9L---|--9----|-------|-------|--21---|--21s--|
----------------------------|-------|-------|-------|-------|-------|-------|
----------------------------|-------|-------|-------|-------|-------|-------|
----------------------------|-------|-------|-------|-------|-------|-------|
----------------------------|-------|-------|-------|-------|-------|-------|
----------------------------|-------|-------|-------|-------|-------|-------|

  =       =
--9----|--9-------|--4L-4L-4--4L-4L-4--4L-4----|--4L-4L-4--4L-4L-4--4L-4----|
-------|----------|----------------------------|----------------------------|
-------|----------|-----6--6L-6--6--6L-6--6----|-----6--6L-6--6--6L-6--6----|
-------|----------|----------------------------|----------------------------|
-------|----------|----------------------------|----------------------------|
-------|----------|----------------------------|----------------------------|


----------------------------|----------------------------|
--5L-5L-5--5L-5L-5--5-------|--4L-4L-4--5L-5--4L-4--5----|
-----6--6L-6--6--6L-6--6----|-----6--6L-6--6L-6--6-------|
----------------------------|----------------------------|
----------------------------|----------------------------|
----------------------------|----------------------------|


--4L-4L-4--4L-4L-4--4L-4----|--4L-4L-4--4L-4L-4--4L-4----|
----------------------------|----------------------------|
-----6--6L-6--6--6L-6--6----|-----6--6L-6--6--6L-6--6----|
----------------------------|----------------------------|
----------------------------|----------------------------|
----------------------------|----------------------------|


----------------------------|----------------------------|
--5L-5L-5--5L-5L-5--5-------|--4L-4L-4--5L-5--4L-4--5----|
-----6--6L-6--6--6L-6--6----|-----6--6L-6--6L-6--6-------|
----------------------------|----------------------------|
----------------------------|----------------------------|
----------------------------|----------------------------|


--4L-4L-4--4L-4L-4--4L-4----|--4L-4L-4--4L-4L-4--4L-4----|
----------------------------|----------------------------|
-----6--6L-6--6--6L-6--6----|-----6--6L-6--6--6L-6--6----|
----------------------------|----------------------------|
----------------------------|----------------------------|
----------------------------|----------------------------|


----------------------------|----------------------------|
--5L-5L-5--5L-5L-5--5-------|--4L-4L-4--5L-5--4L-4--5----|
-----6--6L-6--6--6L-6--6----|-----6--6L-6--6L-6--6-------|
----------------------------|----------------------------|
----------------------------|----------------------------|
----------------------------|----------------------------|


--4L-4L-4--4L-4L-4--4L-4----|--4L-4L-4--4L-4L-4--4L-4----|
----------------------------|----------------------------|
-----6--6L-6--6--6L-6--6----|-----6--6L-6--6--6L-6--6----|
----------------------------|----------------------------|
----------------------------|----------------------------|
----------------------------|----------------------------|


----------------------------|----------------------------|
--5L-5L-5--5L-5L-5--5-------|--4L-4L-4--5L-5--4L-4--5----|
-----6--6L-6--6--6L-6--6----|-----6--6L-6--6L-6--6-------|
----------------------------|----------------------------|
----------------------------|----------------------------|
----------------------------|----------------------------|


--9-----9--9--9--9--9--9s---|--16-14----12----14---------|--9----|
----------------------------|----------------------------|--9----|
----------------------------|----------------------------|--9----|
----------------------------|----------------------------|-------|
----------------------------|----------------------------|-------|
----------------------------|----------------------------|-------|


--16s14----12----14---------|--9----|--16s14----12----14---------|--16---|
----------------------------|--9----|----------------------------|--17---|
----------------------------|--9----|----------------------------|--16---|
----------------------------|-------|----------------------------|-------|
----------------------------|-------|----------------------------|-------|
----------------------------|-------|----------------------------|-------|


--16-16-14-14-19-19-14s-----|----------------------------|
----------------------------|----------------------------|
----------------------------|----------------------------|
----------------------------|--------6-----------6-------|
----------------------------|--4--4-----4L-4--4-----4L---|
----------------------------|----------------------------|


----------------------------|----------------------------|
----------------------------|----------------------------|
----------------------------|----------------------------|
--------6-----------6-------|--------6-----------6-------|
--4--4-----4L-4--4-----4----|--7--7-----7L-7--7-----7----|
----------------------------|----------------------------|


----------------------------|----------------------------|
----------------------------|----------------------------|
----------------------------|----------------------------|
--------6-----------6-------|--------6-----------6-------|
--6--6-----6L-6--6-----6----|--4--4-----4L-4--4-----4L---|
----------------------------|----------------------------|


----------------------------|----------------------------|-------|
----------------------------|----------------------------|-------|
----------------------------|----------------------------|-------|
--------6-----------6-------|--------6-----------6-------|-------|
--4--4-----4L-4--4-----4----|--7--7-----7L-7--7-----7----|--6----|
----------------------------|----------------------------|-------|


----------------------------|----------------------------|
----------------------------|----------------------------|
----------------------------|----------------------------|
--------6-----------6-------|--------6-----------6-------|
--4--4-----4L-4--4-----4L---|--4--4-----4L-4--4-----4----|
----------------------------|----------------------------|


----------------------------|----------------------------|
----------------------------|----------------------------|
----------------------------|----------------------------|
--------6-----------6-------|--------6-----------6-------|
--7--7-----7L-7--7-----7----|--6--6-----6L-6--6-----6----|
----------------------------|----------------------------|


----------------------------|----------------------------|
----------------------------|----------------------------|
----------------------------|----------------------------|
--------6-----------6-------|--------6-----------6-------|
--4--4-----4L-4--4-----4L---|--4--4-----4L-4--4-----4----|
----------------------------|----------------------------|


----------------------------|---------------------------||
----------------------------|---------------------------||
----------------------------|--------------------------o||
--------6-----------6-------|--------6-----------6-----o||
--7--7-----7L-7--7-----7----|--6--6-----6L-6--6-----6---||
----------------------------|---------------------------||


--4-----4--4--4--4--4--4----|--4--4--4--4L-4--4--4--4----|
--5-----5--5--5--5--5--5----|--5--5--5--5L-5--5--5--5----|
--6-----6--6--6--6--6--6----|--6--6--6--6L-6--6--6--6----|
--6-----6--6--6--6--6--6----|--6--6--6--6L-6--6--6--6----|
--4-----4--4--4--4--4--4----|--4--4--4--4L-4--4--4--4----|
----------------------------|----------------------------|


----------------------------|----------------------------|
--9-----9--9--9--9--9--9----|--7--7--7--7L-7--7--7--7----|
--9-----9--9--9--9--9--9----|--8--8--8--8L-8--8--8--8----|
--9-----9--9--9--9--9--9----|--9--9--9--9L-9--9--9--9----|
--7-----7--7--7--7--7--7----|--9--9--9--9L-9--9--9--9----|
----------------------------|--7--7--7--7L-7--7--7--7----|


--4-----4--4--4--4--4--4----|--4--4--4--4L-4--4--4--4----|
--5-----5--5--5--5--5--5----|--5--5--5--5L-5--5--5--5----|
--6-----6--6--6--6--6--6----|--6--6--6--6L-6--6--6--6----|
--6-----6--6--6--6--6--6----|--6--6--6--6L-6--6--6--6----|
--4-----4--4--4--4--4--4----|--4--4--4--4L-4--4--4--4----|
----------------------------|----------------------------|


----------------------------|----------------------------|
--9-----9--9--9--9--9--9----|--7--7--7--7L-7--7--7--7----|
--9-----9--9--9--9--9--9----|--8--8--8--8L-8--8--8--8----|
--9-----9--9--9--9--9--9----|--9--9--9--9L-9--9--9--9----|
--7-----7--7--7--7--7--7----|--9--9--9--9L-9--9--9--9----|
----------------------------|--7--7--7--7L-7--7--7--7----|


--14-14-16-16---------------|--14-14-16-16---------------|
--------------17-17-16-16---|--------------17-17-16-16---|
----------------------------|----------------------------|
----------------------------|----------------------------|
----------------------------|----------------------------|
----------------------------|----------------------------|


--14-14-16-16---------------|--14-14-16-16---------------|
--------------17-17-16-16---|--------------17-17-16-16---|
----------------------------|----------------------------|
----------------------------|----------------------------|
----------------------------|----------------------------|
----------------------------|----------------------------|


--14-14-16-16---------------|--14-14-16-16---------------|
--------------17-17-16-16---|--------------17-17-16-16---|
----------------------------|----------------------------|
----------------------------|----------------------------|
----------------------------|----------------------------|
----------------------------|----------------------------|


--14-14-16-16---------------|----------------------------|----------------||
--------------17-17-16-16---|--17-17-16-16-14-14-16-16---|--14L14b--------||
----------------------------|----------------------------|----------------||
----------------------------|----------------------------|----------------||
----------------------------|----------------------------|----------------||
----------------------------|----------------------------|----------------||

***********************************************************

Legend
L - tied note
x - dead note
h - hammer on/pull off
b - bend
s - slide
~ - vibrato
g - ghost note
> - accentuated note
t - trill
M - palm mute
. - staccato
P - popping (bass)
S - slapping (bass)
+ - tapping
W - wide vibrato
< - fade in
w - whammy bar
= - tremolo picking
v - brush up
^ - brush down
V - pick stroke up
n - pick stroke down

***********************************************************

            
            
Suggest correction
Creating personal tab
Creating personal tab
You can edit any tab online and save it as your Personal.

You can edit, replace or remove any tab part or add personal notes – all changes will be seen only by you.

Personal tabs can be accessed anytime from any device, even offline.
Learn more »
Give kudos to tab author, rate the tab!
1 2 3 4 5
comments
print report bad tab
guest
Wanna post a correction for this tab? Suggest correction