Oops, an error
Loading. Please wait.

My Heart I Surrender chords

version 2
version 2

Whole song

  • More complete, intro and solo tabbed accurately.

Interactive

3,763 views 45 this week
1 commentread comment
1 2 3 4 5
x 7
add to favorites
×
Save as Personal and add changes to this tab that will be seen only by you. Learn more ›
×
You can save this tab as Personal to edit and correct it or add notes. All changes will be seen only by you. Learn more »
launch autoscroll
font size
0
reset
transpose
0
reset
simplify chords
display chords
guitar tuner
edit
Autoscroll
slow
fast
+/-
esc
set tempo
stop
About this tab version
More complete, intro and solo tabbed accurately. Was this info helpful? Yes No
Strumming
There is no strumming pattern for this song yet. and get +5 IQ
I Prevail - My Heart I Surrender
              D standard (D G C F A D) tune a whole step lower

C#m7 = x46600   E5 = x79900  Asus2 = x02200  Bsus = x24400  E = 022100

Intro   
 C#m7          |             |E5            |Bsus            ||
     H.H. ..............................................|
d--------------|-------------|--------------|----------------|
A-------<5>----|-------------|--------<5>---|<4>-------------|
F----<4>-------|-------------|--------------|-------<4>------|
C--------------|-------------|--------------|----------------|
G--------------|-------------|--------------|----------------|
D--------------|-------------|--------------|----------------|

Verse 1
                     C#m7      E5             Bsus        C#m7 
 I'm a ghost in your eyes, a shadow you can't seem to recognize
    E5             Bsus        C#m7
 I have a thought of you for every star in the sky,
      E5             Bsus             C#m7         E5        Bsus 
 But I'm scared, I'll never cross your mind, yeah, I'm scared

Chorus
C#m7                     Asus2
 Will our stars ever align? Will two hearts beat in time?
E                                     Bsus
 These words you should always remember, to you, my heart I surrender
C#m7                               Asus2
 Chasing love that can never be mine; maybe one day you'll realize
E                                     Bsus           N.C.
 These words you should always remember, to you, my heart I surrender
  
Solo
C#m7               |                   |E5                 |Bsus              ||x2
-------------------|-------------------|-------------------|------------------|
-------------------|-------------------|-------------------|------------------|
----9---11/13-11\9-|----9---11/13-11\9-|----9---11/13-11\9-|8---8-8-8/9-9-----|
9-9----------------|--9----------------|9-9----------------|------------------|
-------------------|-------------------|-------------------|------------------|
-------------------|-------------------|-------------------|------------------|
                                                        (my heart I surrender)
Verse 2
                       C#m7      E5            Bsus          C#m7 
 And I can't count the times I stayed awake pretending you were mine
          E5                 Bsus        C#m7 
 Now I'm left here with this emptiness inside
E5 Bsus                 C#m7      E5  Bsus
   Why can't I make you mine?

Chorus
C#m7                     Asus2
 Will our stars ever align? Will two hearts beat in time?
E                                     Bsus
 These words you should always remember, to you, my heart I surrender
C#m7                               Asus2
 Chasing love that can never be mine; maybe one day you'll realize
E                                     Bsus           N.C.
 These words you should always remember, to you, my heart I surrender

Solo
C#m7                     |                    |
-------------------------|--------------------|
-12-12-12----------------|--------------------|
----------13-13-13-11-11-|11-9-9-9-9/11-11-11-|
-------------------------|--------------------|
-------------------------|--------------------|
-------------------------|--------------------|

Asus2                    |                    |
-------------------------|--------------------|
-14-14-14----------------|--------------------|
----------13-13-13-11-11-|11-9-9-9-9/11-11-11-|
-------------------------|--------------------|
-------------------------|--------------------|
-------------------------|--------------------|

 E                       |                    |
-------------------------|--------------------|
-12-12-12----------------|--------------------|
----------13-13-13-11-11-|11-9-9-9-9/11-11-11-|
-------------------------|--------------------|
-------------------------|--------------------|
-------------------------|--------------------|

1st ending                                2nd ending             
Bsus                |               :||  Bsus                |                   ||
--------------------|----------------|   --------------------|-------------------|
--------------------|----------------|   --------------------|-------------------|
-9-9-9-11-11-11-8-8-|8-8-8-8-8-8-8-8-|   -9-9-9-11-11-11-8-8-|9-9-9-11-11-11-8-8-|
--------------------|----------------|   --------------------|-------------------|
--------------------|----------------|   --------------------|-------------------|
--------------------|----------------|   --------------------|-------------------|
               (my heart I surrender)

Chorus
C#m7
 Will our stars ever align? (ever align)
Asus2
 Will two hearts, beat in time?
E                                     Bsus
 These words you should always remember, to you, my heart I surrender
C#m7
 Chasing love that can never be mine (never be mine)
Asus2
 Maybe one day you'll realize
E                                     Bsus
 These words you should always remember, to you, my heart I surrender
Suggest correction
Creating personal tab
Creating personal tab
You can edit any tab online and save it as your Personal.

You can edit, replace or remove any tab part or add personal notes – all changes will be seen only by you.

Personal tabs can be accessed anytime from any device, even offline.
Learn more »
comments
print report bad tab
1 comment total.
0 reply
P_Trik 5,928 May 25, 2016 01:26 PM

For the Harp Harmonics in the intro, here's a great lesson for those who've never developed that skill yet:

https://www.ultimate-guitar.com/lessons/for_beginners/natural_and_harp_harmonics.html

guest
You may want to rate the tab now too:
select rating
Wanna post a correction for this tab? Suggest correction