Oops, an error
Loading. Please wait.

Stuck In Your Head Tab

1,003 views 141 this week
4 commentsread comments
1 2 3 4 5
1 last vote to show rating
add to favorites
launch autoscroll
font size
0
reset
how to read this tab
guitar tuner
Autoscroll
slow
fast
+/-
esc
set tempo
stop
Help us to improve Ultimate-Guitar.com Take our survey!
×
Author
Difficulty
Tuning
novice
A E A D F# B
About this tab version
This is the first tablature posted for this song. Was this info helpful? Yes No
-------------------------------------------------------------------------------
                             I Prevail - Stuck In Your Head
-------------------------------------------------------------------------------
Tabbed by: Matt Benecke
Email:

Tuning: Drop A (low to high A E A D F# B)


Intro (0:00 - 0:20)

Guitar 1 (Electric) (0:08 - 0:14) (Riff 1)

 B|---------------------------------|------------------------------------------|
F#|---------------------------------|------------------------------------------|
 D|---------------------------------|------------------------------------------|
 A|-9-9-9-9-9-9-9-9-9-9-9-9-9-9-9-9-|-5-5-5-5-5-5-5-5-5-5-5-5-5-5-5-5----------|
 E|-9-9-9-9-9-9-9-9-9-9-9-9-9-9-9-9-|-5-5-5-5-5-5-5-5-5-5-5-5-5-5-5-5----------|
 A|-9-9-9-9-9-9-9-9-9-9-9-9-9-9-9-9-|-5-5-5-5-5-5-5-5-5-5-5-5-5-5-5-5----------|

Guitar 2 (Electric) (0:08 - 0:14) (Riff 1a)

 B|-------------------------------------------------|-------17------17-------17-------17------17--|
F#|-------------------------------------------------|-14h15----14h5----14h15----14h15----14h5-----|
 D|-14-14-14-14-13-13-13-13-11-11-11-11-11-11-11-11-|---------------------------------------------|
 A|--x--x--x--x--x--x--x--x--x--x--x--x--x--x--x--x-|---------------------------------------------|
 E|-12-12-12-12-11-11-11-11--9--9--9--9--9--9--9--9-|---------------------------------------------|
 A|-------------------------------------------------|---------------------------------------------|

Guitar 1 (Electric) (0:14 - 0:20) (Riff 1 continued)

 B|---------------------------------|------------------------------------------|
F#|---------------------------------|------------------------------------------|
 D|---------------------------------|------------------------------------------|
 A|-0-0-0-0-0-0-0-0-0-0-0-0-0-0-0-0-|-7-7-7-7-7-7-7-7-7-7-7-7-7-7-7-7----------|
 E|-0-0-0-0-0-0-0-0-0-0-0-0-0-0-0-0-|-7-7-7-7-7-7-7-7-7-7-7-7-7-7-7-7----------|
 A|-0-0-0-0-0-0-0-0-0-0-0-0-0-0-0-0-|-7-7-7-7-7-7-7-7-7-7-7-7-7-7-7-7----------|
                                                           pm . . . .
Guitar 2 (Electric) (0:14 - 0:20) (Riff 1a continued)

 B|-------------------------------------------------|-------17------17-------17-------17------17-----|
F#|-------------------------------------------------|-14h15----14h5----14h15----14h15----14h5----14--|
 D|-14-14-14-14-13-13-13-13-11-11-11-11-11-11-11-11-|------------------------------------------------|
 A|--x--x--x--x--x--x--x--x--x--x--x--x--x--x--x--x-|------------------------------------------------|
 E|-12-12-12-12-11-11-11-11--9--9--9--9--9--9--9--9-|------------------------------------------------|
 A|-------------------------------------------------|------------------------------------------------|


Verse 1 (0:21 - 0:48)

Guitar 1 (Electric) (0:20 - 0:32) (Riff 2)

 B|---------------------------------|------------------------------------------|
F#|---------------------------------|------------------------------------------|
 D|---------------------------------|------------------------------------------|
 A|-9-9-9-9-9-9-9-9-9-9-9-9-9-9-9-9-|-5-5-5-5-5-5-5-5-5-5-5-5-5-5-5-5----------|
 E|-9-9-9-9-9-9-9-9-9-9-9-9-9-9-9-9-|-5-5-5-5-5-5-5-5-5-5-5-5-5-5-5-5----------|
 A|-9-9-9-9-9-9-9-9-9-9-9-9-9-9-9-9-|-5-5-5-5-5-5-5-5-5-5-5-5-5-5-5-5----------|
  pm. . . . . . . . . . . . . . . .   . . . . . . . . . . . . . . . .


 B|---------------------------------|------------------------------------------|
F#|---------------------------------|------------------------------------------|
 D|---------------------------------|------------------------------------------|
 A|-0-0-0-0-0-0-0-0-0-0-0-0-0-0-0-0-|-7-7-7-7-7-7-7-7-7h9-9-7h9-9-7h9----------|
 E|-0-0-0-0-0-0-0-0-0-0-0-0-0-0-0-0-|-7-7-7-7-7-7-7-7-7h9-9-7h9-9-7h9----------|
 A|-0-0-0-0-0-0-0-0-0-0-0-0-0-0-0-0-|-7-7-7-7-7-7-7-7-7h9-9-7h9-9-7h9----------|
  pm. . . . . . . . . . . . . . . .   . . . . . . . . 

Guitar 1 (Electric) (0:33 - 0:45) (Riff 2a)

 B|---------------------------------|------------------------------------------|
F#|---------------------------------|------------------------------------------|
 D|---------------------------------|------------------------------------------|
 A|-9-9-9-9-9-9-9-9-9-9-9-9-9-9-9-9-|-5-5-5-5-5-5-5-5-5-5-5-5-5-5-5-5----------|
 E|-9-9-9-9-9-9-9-9-9-9-9-9-9-9-9-9-|-5-5-5-5-5-5-5-5-5-5-5-5-5-5-5-5----------|
 A|-9-9-9-9-9-9-9-9-9-9-9-9-9-9-9-9-|-5-5-5-5-5-5-5-5-5-5-5-5-5-5-5-5----------|
  pm. .   . . .   . . .   . .   .     . .   . . .   . . .   . .   .   

 B|---------------------------------|------------------------------------------|
F#|---------------------------------|------------------------------------------|
 D|---------------------------------|------------------------------------------|
 A|-0-0-0-0-0-0-0-0-0-0-0-0-0-0-0-0-|-7-7-7-7-7-7-7-7-7-7-7-7-7-7-7-7----------|
 E|-0-0-0-0-0-0-0-0-0-0-0-0-0-0-0-0-|-7-7-7-7-7-7-7-7-7-7-7-7-7-7-7-7----------|
 A|-0-0-0-0-0-0-0-0-0-0-0-0-0-0-0-0-|-7-7-7-7-7-7-7-7-7-7-7-7-7-7-7-7----------|
  pm. .   . . .   . . .   . .   .     . .   . . .   . . .     


Chorus 1 (0:48 - 1:25)

Guitar 1 (Electric) (0:48 - 1:01) (Riff 3)

 B|---------------------------------|------------------------------------------|
F#|---------------------------------|------------------------------------------|
 D|---------------------------------|------------------------------------------|
 A|-9-9-9-7-9--9--9-9-9-9-9-9-9-9---|-5-5-5-5-5-5-5-5-5-5-5-5-5-5-5-5----------|
 E|-9-9-9-7-9--9--9-9-9-9-9-9-9-9---|-5-5-5-5-5-5-5-5-5-5-5-5-5-5-5-5----------|
 A|-9-9-9-7-9--9--9-9-9-9-9-9-9-9---|-5-5-5-5-5-5-5-5-5-5-5-5-5-5-5-5----------|

 B|-------------------------------------------------|-----------------------------------|
F#|-------------------------------------------------|-----------------------------------|
 D|-------------------------------------------------|-----------------------------------|
 A|-12-12-12-12-12-12-12-12-12-12-12-12-12-12-12-12-|-7-7-7-7-7-7-7-7-7-7-7-7-7-7-7-7---|
 E|-12-12-12-12-12-12-12-12-12-12-12-12-12-12-12-12-|-7-7-7-7-7-7-7-7-7-7-7-7-7-7-7-7---|
 A|-12-12-12-12-12-12-12-12-12-12-12-12-12-12-12-12-|-7-7-7-7-7-7-7-7-7-7-7-7-7-7-7-7---|
                                                                           pm . . . .

Guitar 1 (Electric) (1:01 - 1:13) (Riff 3a)

 B|---------------------------------|------------------------------------------|
F#|---------------------------------|------------------------------------------|
 D|---------------------------------|------------------------------------------|
 A|-9-9-9-7-9--9--9-9-9-9-9-9-9-9---|-5-5-5-5-5-5-5-5-5-5-5-5-5-5-5-5----------|
 E|-9-9-9-7-9--9--9-9-9-9-9-9-9-9---|-5-5-5-5-5-5-5-5-5-5-5-5-5-5-5-5----------|
 A|-9-9-9-7-9--9--9-9-9-9-9-9-9-9---|-5-5-5-5-5-5-5-5-5-5-5-5-5-5-5-5----------|

 B|---------------------------------|------------------------------------------|
F#|---------------------------------|------------------------------------------|
 D|---------------------------------|------------------------------------------|
 A|-0-0-0-0-0-0-0-0-0-0-0-0-0-0-0-0-|-7-7-7-7-7-7-7-7-7-7-7--9--9--7-----------|
 E|-0-0-0-0-0-0-0-0-0-0-0-0-0-0-0-0-|-7-7-7-7-7-7-7-7-7-7-7--9--9--7-----------|
 A|-0-0-0-0-0-0-0-0-0-0-0-0-0-0-0-0-|-7-7-7-7-7-7-7-7-7-7-7--9--9--7-----------|
                                                       
From 1:13 - 1:25

Guitar 1 (Electric) 

 B|---------------------------------|------------------------------------------|
F#|---------------------------------|------------------------------------------|
 D|---------------------------------|------------------------------------------|
 A|-9-9-9-9-9-9-9-9-9-9-9-9-9-9-9-9-|-5-5-5-5-5-5-5-5-5-5-5-5-5-5-5-5----------|
 E|-9-9-9-9-9-9-9-9-9-9-9-9-9-9-9-9-|-5-5-5-5-5-5-5-5-5-5-5-5-5-5-5-5----------|
 A|-9-9-9-9-9-9-9-9-9-9-9-9-9-9-9-9-|-5-5-5-5-5-5-5-5-5-5-5-5-5-5-5-5----------|

Guitar 2 (Electric) 

 B|-------------------------------------------------|-------17------17-------17-------17------17--|
F#|-------------------------------------------------|-14h15----14h5----14h15----14h15----14h5-----|
 D|-14-14-14-14-13-13-13-13-11-11-11-11-11-11-11-11-|---------------------------------------------|
 A|--x--x--x--x--x--x--x--x--x--x--x--x--x--x--x--x-|---------------------------------------------|
 E|-12-12-12-12-11-11-11-11--9--9--9--9--9--9--9--9-|---------------------------------------------|
 A|-------------------------------------------------|---------------------------------------------|

Guitar 1 (Electric)

 B|---------------------------------|------------------------------------------|
F#|---------------------------------|------------------------------------------|
 D|---------------------------------|------------------------------------------|
 A|-0-0-0-0-0-0-0-0-0-0-0-0-0-0-0-0-|-7-7-7-7-7-7-7-7-7-7-7-7-7-7-7-7----------|
 E|-0-0-0-0-0-0-0-0-0-0-0-0-0-0-0-0-|-7-7-7-7-7-7-7-7-7-7-7-7-7-7-7-7----------|
 A|-0-0-0-0-0-0-0-0-0-0-0-0-0-0-0-0-|-7-7-7-7-7-7-7-7-7-7-7-7-7-7-7-7----------|
                                                           pm . . . .
Guitar 2 (Electric)

 B|-------------------------------------------------|-------17------17-------17-------17------17-----|
F#|-------------------------------------------------|-14h15----14h5----14h15----14h15----14h5----14--|
 D|-14-14-14-14-13-13-13-13-11-11-11-11-11-11-11-11-|------------------------------------------------|
 A|--x--x--x--x--x--x--x--x--x--x--x--x--x--x--x--x-|------------------------------------------------|
 E|-12-12-12-12-11-11-11-11--9--9--9--9--9--9--9--9-|------------------------------------------------|
 A|-------------------------------------------------|------------------------------------------------|


Verse 2 (1:25 - 1:50)

Guitar 1 (Electric) (Riff 2a)

 B|---------------------------------|------------------------------------------|
F#|---------------------------------|------------------------------------------|
 D|---------------------------------|------------------------------------------|
 A|-9-9-9-9-9-9-9-9-9-9-9-9-9-9-9-9-|-5-5-5-5-5-5-5-5-5-5-5-5-5-5-5-5----------|
 E|-9-9-9-9-9-9-9-9-9-9-9-9-9-9-9-9-|-5-5-5-5-5-5-5-5-5-5-5-5-5-5-5-5----------|
 A|-9-9-9-9-9-9-9-9-9-9-9-9-9-9-9-9-|-5-5-5-5-5-5-5-5-5-5-5-5-5-5-5-5----------|
  pm. .   . . .   . . .   . .   .     . .   . . .   . . .   . .   .   

 B|---------------------------------|------------------------------------------|
F#|---------------------------------|------------------------------------------|
 D|---------------------------------|------------------------------------------|
 A|-0-0-0-0-0-0-0-0-0-0-0-0-0-0-0-0-|-7-7-7-7-7-7-7-7-7-7-7-7-7-7-7-7----------|
 E|-0-0-0-0-0-0-0-0-0-0-0-0-0-0-0-0-|-7-7-7-7-7-7-7-7-7-7-7-7-7-7-7-7----------|
 A|-0-0-0-0-0-0-0-0-0-0-0-0-0-0-0-0-|-7-7-7-7-7-7-7-7-7-7-7-7-7-7-7-7----------|
  pm. .   . . .   . . .   . .   .     . .   . . .   . . .     

Guitar 1 (Electric) (Riff 2a)

 B|---------------------------------|------------------------------------------|
F#|---------------------------------|------------------------------------------|
 D|---------------------------------|------------------------------------------|
 A|-9-9-9-9-9-9-9-9-9-9-9-9-9-9-9-9-|-5-5-5-5-5-5-5-5-5-5-5-5-5-5-5-5----------|
 E|-9-9-9-9-9-9-9-9-9-9-9-9-9-9-9-9-|-5-5-5-5-5-5-5-5-5-5-5-5-5-5-5-5----------|
 A|-9-9-9-9-9-9-9-9-9-9-9-9-9-9-9-9-|-5-5-5-5-5-5-5-5-5-5-5-5-5-5-5-5----------|
  pm. .   . . .   . . .   . .   .     . .   . . .   . . .   . .   .   

 B|---------------------------------|------------------------------------------|
F#|---------------------------------|------------------------------------------|
 D|---------------------------------|------------------------------------------|
 A|-0-0-0-0-0-0-0-0-0-0-0-0-0-0-0-0-|-7-7-7-7-7-7-7-7-7-7-7-7-7-7-7-7----------|
 E|-0-0-0-0-0-0-0-0-0-0-0-0-0-0-0-0-|-7-7-7-7-7-7-7-7-7-7-7-7-7-7-7-7----------|
 A|-0-0-0-0-0-0-0-0-0-0-0-0-0-0-0-0-|-7-7-7-7-7-7-7-7-7-7-7-7-7-7-7-7----------|
  pm. .   . . .   . . .   . .   .     . .   . . .   . . .     


Chorus 2 (1:50 - 2:14)

Guitar 1 (Electric) (Riff 3)

 B|---------------------------------|------------------------------------------|
F#|---------------------------------|------------------------------------------|
 D|---------------------------------|------------------------------------------|
 A|-9-9-9-7-9--9--9-9-9-9-9-9-9-9---|-5-5-5-5-5-5-5-5-5-5-5-5-5-5-5-5----------|
 E|-9-9-9-7-9--9--9-9-9-9-9-9-9-9---|-5-5-5-5-5-5-5-5-5-5-5-5-5-5-5-5----------|
 A|-9-9-9-7-9--9--9-9-9-9-9-9-9-9---|-5-5-5-5-5-5-5-5-5-5-5-5-5-5-5-5----------|

 B|-------------------------------------------------|-----------------------------------|
F#|-------------------------------------------------|-----------------------------------|
 D|-------------------------------------------------|-----------------------------------|
 A|-12-12-12-12-12-12-12-12-12-12-12-12-12-12-12-12-|-7-7-7-7-7-7-7-7-7-7-7-7-7-7-7-7---|
 E|-12-12-12-12-12-12-12-12-12-12-12-12-12-12-12-12-|-7-7-7-7-7-7-7-7-7-7-7-7-7-7-7-7---|
 A|-12-12-12-12-12-12-12-12-12-12-12-12-12-12-12-12-|-7-7-7-7-7-7-7-7-7-7-7-7-7-7-7-7---|
                                                                           pm . . . .

Guitar 1 (Electric) (Riff 3a)

 B|---------------------------------|------------------------------------------|
F#|---------------------------------|------------------------------------------|
 D|---------------------------------|------------------------------------------|
 A|-9-9-9-7-9--9--9-9-9-9-9-9-9-9---|-5-5-5-5-5-5-5-5-5-5-5-5-5-5-5-5----------|
 E|-9-9-9-7-9--9--9-9-9-9-9-9-9-9---|-5-5-5-5-5-5-5-5-5-5-5-5-5-5-5-5----------|
 A|-9-9-9-7-9--9--9-9-9-9-9-9-9-9---|-5-5-5-5-5-5-5-5-5-5-5-5-5-5-5-5----------|

 B|---------------------------------|------------------------------------------|
F#|---------------------------------|------------------------------------------|
 D|---------------------------------|------------------------------------------|
 A|-0-0-0-0-0-0-0-0-0-0-0-0-0-0-0-0-|-7-7-7-7-7-7-7-7-7-7-7--9--9--7-----------|
 E|-0-0-0-0-0-0-0-0-0-0-0-0-0-0-0-0-|-7-7-7-7-7-7-7-7-7-7-7--9--9--7-----------|
 A|-0-0-0-0-0-0-0-0-0-0-0-0-0-0-0-0-|-7-7-7-7-7-7-7-7-7-7-7--9--9--7-----------|


Bridge (2:15 - 2:52)

Guitar 1 (Electric) (2:15 - 2:40) (Riff 4)

 B|--------------------------------|-----------------------------------|
F#|--------------------------------|-----------------------------------|
 D|--------------------------------|-----------------------------------|
 A|-9-9-9-7-9-9-7-9--9-9-7-9-7-12--|-9-9-9-7-9-9-7-9--9-9-7-9-7-10-10--|
 E|-9-9-9-7-9-9-7-9--9-9-7-9-7-12--|-9-9-9-7-9-9-7-9--9-9-7-9-7-10-10--|
 A|-9-9-9-7-9-9-7-9--9-9-7-9-7-12--|-9-9-9-7-9-9-7-9--9-9-7-9-7-10-10--|

 B|--------------------------------|------------------|
F#|--------------------------------|------------------|
 D|--------------------------------|------------------|
 A|-9-9-9-7-9-9-7-9--9-9-7-9-7-12--|-9-9-9-7-9-9-7-9--|
 E|-9-9-9-7-9-9-7-9--9-9-7-9-7-12--|-9-9-9-7-9-9-7-9--|
 A|-9-9-9-7-9-9-7-9--9-9-7-9-7-12--|-9-9-9-7-9-9-7-9--|

 B|--------------------------------|------------------------------|
F#|--------------------------------|------------------------------|
 D|--------------------------------|------------------------------|
 A|-9-9-9-7-9-9-7-9--9-9-7-9-7-12--|-9-9-9-7-9-9-7-9--9-9-7-9-10--|
 E|-9-9-9-7-9-9-7-9--9-9-7-9-7-12--|-9-9-9-7-9-9-7-9--9-9-7-9-10--|
 A|-9-9-9-7-9-9-7-9--9-9-7-9-7-12--|-9-9-9-7-9-9-7-9--9-9-7-9-10--|

 B|--------------------------------|------------------------------|
F#|--------------------------------|------------------------------|
 D|--------------------------------|------------------------------|
 A|-9-9-9-7-9-9-7-9--9-9-7-9-7-12--|-9-9-9-7-9-9-7-9--9-9-7-9-10~-|
 E|-9-9-9-7-9-9-7-9--9-9-7-9-7-12--|-9-9-9-7-9-9-7-9--9-9-7-9-10~-|
 A|-9-9-9-7-9-9-7-9--9-9-7-9-7-12--|-9-9-9-7-9-9-7-9--9-9-7-9-10~-|

Guitar 3 (Clean) (2:41 - 2:52)  (Riff 4a)

 B|--14-------7-------2-------6-------|
F#|--15-------8-------3-------7-------|
 D|--14-------7-------2-------6-------|
 A|---0-------0-------0-------0-------|
 E|-----------------------------------|
 A|-----------------------------------|

Note: Let clean chords ring out


Chorus 3 (2:53 - 3:18)

Guitar 1 (Electric) (2:53 - 3:07) (Riff 3b)

 B|---------------------------------|------------------------------------------|
F#|---------------------------------|------------------------------------------|
 D|---------------------------------|------------------------------------------|
 A|-9-9-9-7-9--9--9-9-9-9-9-9-9-9---|-5-5-5-5-5-5-5-5-5-5-5-5-5-5-5-5----------|
 E|-9-9-9-7-9--9--9-9-9-9-9-9-9-9---|-5-5-5-5-5-5-5-5-5-5-5-5-5-5-5-5----------|
 A|-9-9-9-7-9--9--9-9-9-9-9-9-9-9---|-5-5-5-5-5-5-5-5-5-5-5-5-5-5-5-5----------|

 B|-------------------------------------------------|-----------------------------------|
F#|-------------------------------------------------|-----------------------------------|
 D|-------------------------------------------------|-----------------------------------|
 A|-12-12-12-12-12-12-12-12-12-12-12-12-12-12-12-12-|-7-7-7-7-7-7-7-7-7-7-7--9--9--7----|
 E|-12-12-12-12-12-12-12-12-12-12-12-12-12-12-12-12-|-7-7-7-7-7-7-7-7-7-7-7--9--9--7----|
 A|-12-12-12-12-12-12-12-12-12-12-12-12-12-12-12-12-|-7-7-7-7-7-7-7-7-7-7-7--9--9--7----|


Guitar 1 (Electric) (3:08 - 3:18) (Riff 3)

 B|---------------------------------|------------------------------------------|
F#|---------------------------------|------------------------------------------|
 D|---------------------------------|------------------------------------------|
 A|-9-9-9-7-9--9--9-9-9-9-9-9-9-9---|-5-5-5-5-5-5-5-5-5-5-5-5-5-5-5-5----------|
 E|-9-9-9-7-9--9--9-9-9-9-9-9-9-9---|-5-5-5-5-5-5-5-5-5-5-5-5-5-5-5-5----------|
 A|-9-9-9-7-9--9--9-9-9-9-9-9-9-9---|-5-5-5-5-5-5-5-5-5-5-5-5-5-5-5-5----------|

 B|-------------------------------------------------|-----------------------------------|
F#|-------------------------------------------------|-----------------------------------|
 D|-------------------------------------------------|-----------------------------------|
 A|-12-12-12-12-12-12-12-12-12-12-12-12-12-12-12-12-|-7-7-7-7-7-7-7-7-7-7-7-7-7-7-7-7---|
 E|-12-12-12-12-12-12-12-12-12-12-12-12-12-12-12-12-|-7-7-7-7-7-7-7-7-7-7-7-7-7-7-7-7---|
 A|-12-12-12-12-12-12-12-12-12-12-12-12-12-12-12-12-|-7-7-7-7-7-7-7-7-7-7-7-7-7-7-7-7---|
                                                                           pm . . . .

Guitar 2 (Electric) (Riff 1a)

 B|-------------------------------------------------|-------17------17-------17-------17------17--|
F#|-------------------------------------------------|-14h15----14h5----14h15----14h15----14h5-----|
 D|-14-14-14-14-13-13-13-13-11-11-11-11-11-11-11-11-|---------------------------------------------|
 A|--x--x--x--x--x--x--x--x--x--x--x--x--x--x--x--x-|---------------------------------------------|
 E|-12-12-12-12-11-11-11-11--9--9--9--9--9--9--9--9-|---------------------------------------------|
 A|-------------------------------------------------|---------------------------------------------|

 B|-------------------------------------------------|-------17------17-------17-------17------17-----|
F#|-------------------------------------------------|-14h15----14h5----14h15----14h15----14h5----14--|
 D|-14-14-14-14-13-13-13-13-11-11-11-11-11-11-11-11-|------------------------------------------------|
 A|--x--x--x--x--x--x--x--x--x--x--x--x--x--x--x--x-|------------------------------------------------|
 E|-12-12-12-12-11-11-11-11--9--9--9--9--9--9--9--9-|------------------------------------------------|
 A|-------------------------------------------------|------------------------------------------------|



Outro (3:18 - 3:35)

Guitar 1 (Electric) (3:18 - 3:35) (Riff 3b)

 B|---------------------------------|------------------------------------------|
F#|---------------------------------|------------------------------------------|
 D|---------------------------------|------------------------------------------|
 A|-9-9-9-7-9--9--9-9-9-9-9-9-9-9---|-5-5-5-5-5-5-5-5-5-5-5-5-5-5-5-5----------|
 E|-9-9-9-7-9--9--9-9-9-9-9-9-9-9---|-5-5-5-5-5-5-5-5-5-5-5-5-5-5-5-5----------|
 A|-9-9-9-7-9--9--9-9-9-9-9-9-9-9---|-5-5-5-5-5-5-5-5-5-5-5-5-5-5-5-5----------|

 B|-------------------------------------------------|--------------------------------------|
F#|-------------------------------------------------|--------------------------------------|
 D|-------------------------------------------------|--------------------------------------|
 A|-12-12-12-12-12-12-12-12-12-12-12-12-12-12-12-12-|-7-7-7-7-7-7-7-7-7-7-7--9--9--7---9---|
 E|-12-12-12-12-12-12-12-12-12-12-12-12-12-12-12-12-|-7-7-7-7-7-7-7-7-7-7-7--9--9--7---9---|
 A|-12-12-12-12-12-12-12-12-12-12-12-12-12-12-12-12-|-7-7-7-7-7-7-7-7-7-7-7--9--9--7---9---|


Guitar 2 (Electric) (Riff 1a)

 B|-------------------------------------------------|-------17------17-------17-------17------17--|
F#|-------------------------------------------------|-14h15----14h5----14h15----14h15----14h5-----|
 D|-14-14-14-14-13-13-13-13-11-11-11-11-11-11-11-11-|---------------------------------------------|
 A|--x--x--x--x--x--x--x--x--x--x--x--x--x--x--x--x-|---------------------------------------------|
 E|-12-12-12-12-11-11-11-11--9--9--9--9--9--9--9--9-|---------------------------------------------|
 A|-------------------------------------------------|---------------------------------------------|

 B|-------------------------------------------------|-------17------17-------17-------17------17-----|
F#|-------------------------------------------------|-14h15----14h5----14h15----14h15----14h5----14--|
 D|-14-14-14-14-13-13-13-13-11-11-11-11-11-11-11-11-|------------------------------------------------|
 A|--x--x--x--x--x--x--x--x--x--x--x--x--x--x--x--x-|------------------------------------------------|
 E|-12-12-12-12-11-11-11-11--9--9--9--9--9--9--9--9-|------------------------------------------------|
 A|-------------------------------------------------|------------------------------------------------|


Song Structure

Intro (0:00 - 0:20)

Guitar 1 Plays Riff 1   1x

Guitar 2 Plays Riff 1a  1x


Verse 1 (0:21 - 0:48)

Guitar 1 Plays Riff 2   1x then Riff 2a  1x


Chorus 1 (0:48 - 1:13)
 
Guitar 1 Plays Riff 3   1x then Riff 3a  1x 

         (1:13 - 1:25)

Guitar 1 Plays Riff 1   1x

Guitar 2 Plays Riff 1a  1x


Verse 2 (1:25 - 1:50)

Guitar 1 Plays Riff 2a  2x


Chorus 2 (1:50 - 2:14)

Guitar 1 Plays Riff 3   1x then Riff 3a  1x


Bridge (2:15 - 2:40)

Guitar 1 Plays Riff 4   1x

       (2:41 - 2:52)

Guitar 3 Plays Riff 4a  1x


Chorus 3 (2:53 - 3:06)

Guitar 1 Plays Riff 3b  1x

         (3:06 - 3:18)

Guitar 1 Plays Riff 3   1x

Guitar 2 Plays Riff 1a  1x

Outro (3:18 - 3:35)

Guitar 1 Plays Riff 3b  1x

Guitar 2 Plays Riff 1a  1x



Tab Legend

| /  slide up
| \  slide down
| h  hammer-on
| p  pull-off
| ~  vibrato
| +  harmonic
| x  Mute note
===============================================================================
Suggest correction
Give kudos to tab author, rate the tab!
1 2 3 4 5
comments
print report bad tab
4 comments total. Showing first comments.
+1 reply
RedneckJedynak 88 Nov 16, 2016 04:02 AM

Just use a 7 string at this point lol.

+1 reply
lpwjbklyn 452 Nov 16, 2016 04:34 PM

Yeah man no kidding! Haha Actually I just used a drop tuning pedal--I can't be bothered with the crazy six string tuning.

http://www.sweetwater.com/store/detail/Drop?product_id=%7Bproduct_id%7D&adpos=1o1&creative=103263529321&device=c&matchtype=&network=g&gclid=CM3G8bPardACFU1LDQodvksBjg

0 reply
RedneckJedynak 88 Nov 18, 2016 04:34 AM

I WANT ONE!

guest
You may want to rate the tab now too:
select rating
Wanna post a correction for this tab? Suggest correction