Oops, an error
Loading. Please wait.

Abandono Tab

10 views 1 this week
no commentswrite comment
1 2 3 4 5
3 more votes to show rating
add to favorites
launch autoscroll
font size
0
reset
how to read this tab
guitar tuner
×
Best way to learn
"Abandono"
Autoscroll
slow
fast
+/-
esc
set tempo
stop
Intro:

4|--7-7-----------------7-7----------------------------
5|5-----X2-----7-7----5--------7-7-----5-5-------------
6|-----------5---------------5-------3-----------------

4|--7-7----------------------7-7-----------------7-7---
5|5-----X2----7-7----7-7---5-----X2----7-7-----5----X5-
6|----------5------5-----------------5-----X2----------

.......................................................


4|--7-7-------------------
5|5---------------7-7-----
6|--------------5---------

A gritos ellos le pedían

4|--7-7-------------------|
5|5---------------5-5-----|
6|--------------3---------|

Que no los dejara solos y olvidados

4|--7-7--------------------7-7-----------------7-7----|
5|5---------------7-7----5-----X2----7-7-----5-----X5-|
6|--------------5------------------5-----X2-----------|


Ahora,    en medio de nada            seres atrapados


Se repite lo mismo(...)

Las caras de tristeza y sucias

Mirando a lo lejos, pensando que harían

Que seres serian mañana no le llames vida

..........................................................

4|----------7-7-------/-----------------------------------|
5|--5-5---5------7-7-/al final---7-7------6-6-------5-5---|
6|3------------5----/----------5----x1--4-----x1--3----x1-|

No puedo comprender por qué deben vivir

Maltratados en casa y luego en las calles

Acaso crees que ellos soñaban ser así


Un destino tan cruel no lo merece nadie(sin la parte final)

Punteo:(corregido)

4|---777---------------777--------------777----------
5|555---5-----777---555---5----555---555---5----777--
6|---------555---5----------333---3----------555---7-


4|-quinta----7-7------------7-7--|
5|---------5--------7-7---5------|
6|----------------5--------------|

....................................................

4|--7-7-------------------
5|5---------------7-7-----
6|--------------5---------

Una situación aguda y fría

4|--7-7-------------------|
5|5---------------5-5-----|
6|--------------3---------|

Intenso dolor les fue causado

4|--7-7-------------7-7-----------------7-7----|
5|5--------7-7----5-----X2----7-7-----5-----X5-|
6|-------5------------------5-----X2-----------|

Todo termino por tonterías

(se repite de nuevo)
Es un abandono a los principios
Poco es que te tilden de cobarde
Tal vez morirás arrepentido
.......................................................

4|----------7-7------/---------------------------------|
5|--5-5---5------7-7/al final--7-7------6-6-------5-5--|
6|3------------5---/---------5----x1--4-----x1--3----x1|


Ni me lo preguntes a mí que puedo decir
Lo que yo digo nunca le ha importado a nadie
No te lo preguntes a ti que puedes decir

4|------------7-7---------/------------------7-7----|
5|----5-5---5--------7-7-/-outro---7-7-----5----x1--|
6|--3--------------5----/--------5-----x1-----------|

Lo que tú dices nunca le ha importado a nadie (...)


Aunke la otra no este mal,
esta version se asimila mas a la cancion
Suggest correction
Give kudos to tab author, rate the tab!
1 2 3 4 5
comments
print report bad tab
guest
You may want to rate the tab now too:
select rating
Wanna post a correction for this tab? Suggest correction